ISO-10303-21;
HEADER;
FILE_DESCRIPTION (( 'STEP AP203' ),
    '1' );
FILE_NAME ('010-1107E_UVFS_PCV_window.STEP',
    '2021-02-25T08:32:46',
    ( '' ),
    ( '' ),
    'SwSTEP 2.0',
    'SolidWorks 2019',
    '' );
FILE_SCHEMA (( 'CONFIG_CONTROL_DESIGN' ));
ENDSEC;

DATA;
#1 = CARTESIAN_POINT ( 'NONE',  ( 1.994931997373328159E-14, 0.000000000000000000, 3.000000000000002665 ) ) ;
#2 = CALENDAR_DATE ( 2021, 25, 2 ) ;
#3 = CARTESIAN_POINT ( 'NONE',  ( 1.994931997373328159E-14, 0.000000000000000000, 152.8655313939799782 ) ) ;
#4 = DIRECTION ( 'NONE',  ( 1.000000000000000000, 0.000000000000000000, 0.000000000000000000 ) ) ;
#5 = CYLINDRICAL_SURFACE ( 'NONE', #167, 6.349999999999999645 ) ;
#6 = DATE_AND_TIME ( #19, #84 ) ;
#7 = ORIENTED_EDGE ( 'NONE', *, *, #92, .T. ) ;
#8 = APPROVAL_PERSON_ORGANIZATION ( #181, #79, #126 ) ;
#9 = PRODUCT_DEFINITION ( 'UNKNOWN', '', #158, #165 ) ;
#10 = CLOSED_SHELL ( 'NONE', ( #150, #46, #194, #183, #140 ) ) ;
#11 = DIRECTION ( 'NONE',  ( 0.000000000000000000, 0.000000000000000000, 1.000000000000000000 ) ) ;
#12 = COORDINATED_UNIVERSAL_TIME_OFFSET ( 2, 0, .AHEAD. ) ;
#13 = ORIENTED_EDGE ( 'NONE', *, *, #123, .T. ) ;
#14 = PERSON_AND_ORGANIZATION_ROLE ( 'design_supplier' ) ;
#15 = DIRECTION ( 'NONE',  ( 0.000000000000000000, -1.000000000000000000, -0.000000000000000000 ) ) ;
#16 = CARTESIAN_POINT ( 'NONE',  ( 1.994931997373328159E-14, 0.000000000000000000, 152.8655313939799782 ) ) ;
#17 = DIRECTION ( 'NONE',  ( 1.000000000000000000, 0.000000000000000000, 0.000000000000000000 ) ) ;
#18 = PLANE ( 'NONE',  #21 ) ;
#19 = CALENDAR_DATE ( 2021, 25, 2 ) ;
#20 = APPROVAL ( #133, 'UNSPECIFIED' ) ;
#21 = AXIS2_PLACEMENT_3D ( 'NONE', #116, #117, #77 ) ;
#22 = PERSON_AND_ORGANIZATION_ROLE ( 'creator' ) ;
#23 = EDGE_CURVE ( 'NONE', #51, #179, #83, .T. ) ;
#24 = CIRCLE ( 'NONE', #135, 6.349999999999891287 ) ;
#25 = PERSON_AND_ORGANIZATION ( #31, #201 ) ;
#26 = CARTESIAN_POINT ( 'NONE',  ( 6.349999999999999645, 7.776507174585692163E-16, 0.000000000000000000 ) ) ;
#27 = PERSON_AND_ORGANIZATION ( #31, #201 ) ;
#28 = CARTESIAN_POINT ( 'NONE',  ( 1.994931997373328159E-14, 0.000000000000000000, 3.000000000000002665 ) ) ;
#29 = DIRECTION ( 'NONE',  ( -0.000000000000000000, -0.000000000000000000, -1.000000000000000000 ) ) ;
#30 = LOCAL_TIME ( 10, 32, 46.00000000000000000, #144 ) ;
#31 = PERSON ( 'UNSPECIFIED', 'UNSPECIFIED', 'UNSPECIFIED', ('UNSPECIFIED'), ('UNSPECIFIED'), ('UNSPECIFIED') ) ;
#32 = AXIS2_PLACEMENT_3D ( 'NONE', #71, #129, #53 ) ;
#33 = EDGE_CURVE ( 'NONE', #179, #51, #185, .T. ) ;
#34 = APPROVAL_STATUS ( 'not_yet_approved' ) ;
#35 = CARTESIAN_POINT ( 'NONE',  ( 0.000000000000000000, 0.000000000000000000, 0.000000000000000000 ) ) ;
#36 = VERTEX_POINT ( 'NONE', #60 ) ;
#37 = APPLICATION_PROTOCOL_DEFINITION ( 'international standard', 'config_control_design', 1994, #120 ) ;
#38 = CARTESIAN_POINT ( 'NONE',  ( 2.913417096733843032E-14, 0.000000000000000000, 2.865531393979992014 ) ) ;
#39 = PERSON_AND_ORGANIZATION ( #31, #201 ) ;
#40 = DIRECTION ( 'NONE',  ( 0.000000000000000000, 0.000000000000000000, 1.000000000000000000 ) ) ;
#41 = VECTOR ( 'NONE', #88, 1000.000000000000000 ) ;
#42 = APPLICATION_CONTEXT ( 'configuration controlled 3d designs of mechanical parts and assemblies' ) ;
#43 =( NAMED_UNIT ( * ) PLANE_ANGLE_UNIT ( ) SI_UNIT ( $, .RADIAN. ) );
#44 =( LENGTH_UNIT ( ) NAMED_UNIT ( * ) SI_UNIT ( .MILLI., .METRE. ) );
#45 =( GEOMETRIC_REPRESENTATION_CONTEXT ( 3 ) GLOBAL_UNCERTAINTY_ASSIGNED_CONTEXT ( ( #127 ) ) GLOBAL_UNIT_ASSIGNED_CONTEXT ( ( #44, #43, #124 ) ) REPRESENTATION_CONTEXT ( 'NONE', 'WORKASPACE' ) );
#46 = ADVANCED_FACE ( 'NONE', ( #198 ), #154, .T. ) ;
#47 = AXIS2_PLACEMENT_3D ( 'NONE', #28, #134, #17 ) ;
#48 = EDGE_LOOP ( 'NONE', ( #195, #100 ) ) ;
#49 = AXIS2_PLACEMENT_3D ( 'NONE', #75, #89, #55 ) ;
#50 = DATE_AND_TIME ( #196, #176 ) ;
#51 = VERTEX_POINT ( 'NONE', #26 ) ;
#52 = CC_DESIGN_PERSON_AND_ORGANIZATION_ASSIGNMENT ( #39, #22, ( #9 ) ) ;
#53 = DIRECTION ( 'NONE',  ( 1.000000000000000000, 1.224646799147353207E-16, 0.000000000000000000 ) ) ;
#54 = CC_DESIGN_APPROVAL ( #102, ( #9 ) ) ;
#55 = DIRECTION ( 'NONE',  ( 1.000000000000000000, 0.000000000000000000, 0.000000000000000000 ) ) ;
#56 = DATE_AND_TIME ( #2, #72 ) ;
#57 = CARTESIAN_POINT ( 'NONE',  ( -6.349999999999871747, 0.000000000000000000, 3.000000000000002665 ) ) ;
#58 = EDGE_CURVE ( 'NONE', #36, #51, #166, .T. ) ;
#59 = PERSON_AND_ORGANIZATION ( #31, #201 ) ;
#60 = CARTESIAN_POINT ( 'NONE',  ( 6.349999999999910827, 7.776507174585638915E-16, 3.000000000000002665 ) ) ;
#61 = LINE ( 'NONE', #175, #104 ) ;
#62 = CARTESIAN_POINT ( 'NONE',  ( 0.000000000000000000, 0.000000000000000000, 3.000000000000000000 ) ) ;
#63 = CC_DESIGN_PERSON_AND_ORGANIZATION_ASSIGNMENT ( #159, #14, ( #158 ) ) ;
#64 = APPROVAL_PERSON_ORGANIZATION ( #130, #102, #65 ) ;
#65 = APPROVAL_ROLE ( '' ) ;
#66 = ORIENTED_EDGE ( 'NONE', *, *, #92, .F. ) ;
#67 = DATE_AND_TIME ( #107, #30 ) ;
#68 = CIRCLE ( 'NONE', #32, 150.0000000000000000 ) ;
#69 = VERTEX_POINT ( 'NONE', #57 ) ;
#70 = CC_DESIGN_PERSON_AND_ORGANIZATION_ASSIGNMENT ( #139, #73, ( #142 ) ) ;
#71 = CARTESIAN_POINT ( 'NONE',  ( 1.994931997373328159E-14, 0.000000000000000000, 152.8655313939799782 ) ) ;
#72 = LOCAL_TIME ( 10, 32, 46.00000000000000000, #136 ) ;
#73 = PERSON_AND_ORGANIZATION_ROLE ( 'classification_officer' ) ;
#74 = SPHERICAL_SURFACE ( 'NONE', #76, 150.0000000000000000 ) ;
#75 = CARTESIAN_POINT ( 'NONE',  ( 0.000000000000000000, 0.000000000000000000, 0.000000000000000000 ) ) ;
#76 = AXIS2_PLACEMENT_3D ( 'NONE', #3, #189, #90 ) ;
#77 = DIRECTION ( 'NONE',  ( 1.000000000000000000, 0.000000000000000000, -0.000000000000000000 ) ) ;
#78 = PRODUCT_DEFINITION_SHAPE ( 'NONE', 'NONE',  #9 ) ;
#79 = APPROVAL ( #34, 'UNSPECIFIED' ) ;
#80 = CARTESIAN_POINT ( 'NONE',  ( -6.349999999999999645, 0.000000000000000000, 0.000000000000000000 ) ) ;
#81 = AXIS2_PLACEMENT_3D ( 'NONE', #146, #190, #11 ) ;
#82 = CC_DESIGN_SECURITY_CLASSIFICATION ( #142, ( #158 ) ) ;
#83 = CIRCLE ( 'NONE', #106, 6.349999999999999645 ) ;
#84 = LOCAL_TIME ( 10, 32, 46.00000000000000000, #174 ) ;
#85 = ORIENTED_EDGE ( 'NONE', *, *, #169, .F. ) ;
#86 = ORIENTED_EDGE ( 'NONE', *, *, #119, .T. ) ;
#87 = APPLICATION_PROTOCOL_DEFINITION ( 'international standard', 'config_control_design', 1994, #42 ) ;
#88 = DIRECTION ( 'NONE',  ( -0.000000000000000000, -0.000000000000000000, -1.000000000000000000 ) ) ;
#89 = DIRECTION ( 'NONE',  ( 0.000000000000000000, 0.000000000000000000, 1.000000000000000000 ) ) ;
#90 = DIRECTION ( 'NONE',  ( 1.000000000000000000, 0.000000000000000000, 0.000000000000000000 ) ) ;
#91 = CC_DESIGN_APPROVAL ( #79, ( #158 ) ) ;
#92 = EDGE_CURVE ( 'NONE', #36, #121, #172, .T. ) ;
#93 = DATE_AND_TIME ( #147, #110 ) ;
#94 = ORIENTED_EDGE ( 'NONE', *, *, #58, .T. ) ;
#95 = DATE_TIME_ROLE ( 'creation_date' ) ;
#96 = EDGE_LOOP ( 'NONE', ( #152, #125, #7 ) ) ;
#97 = APPROVAL_DATE_TIME ( #93, #102 ) ;
#98 = FACE_OUTER_BOUND ( 'NONE', #96, .T. ) ;
#99 = DIRECTION ( 'NONE',  ( -0.000000000000000000, -0.000000000000000000, -1.000000000000000000 ) ) ;
#100 = ORIENTED_EDGE ( 'NONE', *, *, #23, .F. ) ;
#101 = FACE_OUTER_BOUND ( 'NONE', #48, .T. ) ;
#102 = APPROVAL ( #143, 'UNSPECIFIED' ) ;
#103 = SHAPE_DEFINITION_REPRESENTATION ( #78, #148 ) ;
#104 = VECTOR ( 'NONE', #29, 1000.000000000000000 ) ;
#105 = APPROVAL_PERSON_ORGANIZATION ( #59, #20, #132 ) ;
#106 = AXIS2_PLACEMENT_3D ( 'NONE', #115, #40, #4 ) ;
#107 = CALENDAR_DATE ( 2021, 25, 2 ) ;
#108 = COORDINATED_UNIVERSAL_TIME_OFFSET ( 2, 0, .AHEAD. ) ;
#109 = DIRECTION ( 'NONE',  ( 1.000000000000000000, 0.000000000000000000, 0.000000000000000000 ) ) ;
#110 = LOCAL_TIME ( 10, 32, 46.00000000000000000, #12 ) ;
#111 = DIRECTION ( 'NONE',  ( -0.000000000000000000, -0.000000000000000000, -1.000000000000000000 ) ) ;
#112 = DIRECTION ( 'NONE',  ( 0.000000000000000000, 0.000000000000000000, 1.000000000000000000 ) ) ;
#113 = CARTESIAN_POINT ( 'NONE',  ( 0.000000000000000000, 0.000000000000000000, 3.000000000000000000 ) ) ;
#114 = APPROVAL_DATE_TIME ( #56, #20 ) ;
#115 = CARTESIAN_POINT ( 'NONE',  ( 0.000000000000000000, 0.000000000000000000, 0.000000000000000000 ) ) ;
#116 = CARTESIAN_POINT ( 'NONE',  ( 0.000000000000000000, 0.000000000000000000, 0.000000000000000000 ) ) ;
#117 = DIRECTION ( 'NONE',  ( 0.000000000000000000, 0.000000000000000000, 1.000000000000000000 ) ) ;
#118 = DATE_TIME_ROLE ( 'classification_date' ) ;
#119 = EDGE_CURVE ( 'NONE', #69, #121, #68, .T. ) ;
#120 = APPLICATION_CONTEXT ( 'configuration controlled 3d designs of mechanical parts and assemblies' ) ;
#121 = VERTEX_POINT ( 'NONE', #38 ) ;
#122 = CIRCLE ( 'NONE', #47, 6.349999999999891287 ) ;
#123 = EDGE_CURVE ( 'NONE', #36, #69, #24, .T. ) ;
#124 =( NAMED_UNIT ( * ) SI_UNIT ( $, .STERADIAN. ) SOLID_ANGLE_UNIT ( ) );
#125 = ORIENTED_EDGE ( 'NONE', *, *, #123, .F. ) ;
#126 = APPROVAL_ROLE ( '' ) ;
#127 = UNCERTAINTY_MEASURE_WITH_UNIT (LENGTH_MEASURE( 1.000000000000000082E-05 ), #44, 'distance_accuracy_value', 'NONE');
#128 = MECHANICAL_CONTEXT ( 'NONE', #120, 'mechanical' ) ;
#129 = DIRECTION ( 'NONE',  ( 1.224646799147353207E-16, -1.000000000000000000, 0.000000000000000000 ) ) ;
#130 = PERSON_AND_ORGANIZATION ( #31, #201 ) ;
#131 = ORIENTED_EDGE ( 'NONE', *, *, #160, .F. ) ;
#132 = APPROVAL_ROLE ( '' ) ;
#133 = APPROVAL_STATUS ( 'not_yet_approved' ) ;
#134 = DIRECTION ( 'NONE',  ( -0.000000000000000000, -0.000000000000000000, -1.000000000000000000 ) ) ;
#135 = AXIS2_PLACEMENT_3D ( 'NONE', #1, #111, #187 ) ;
#136 = COORDINATED_UNIVERSAL_TIME_OFFSET ( 2, 0, .AHEAD. ) ;
#137 = PRODUCT ( '010-1107E_UVFS_PCV_window', '010-1107E_UVFS_PCV_window', '', ( #128 ) ) ;
#138 = FACE_OUTER_BOUND ( 'NONE', #145, .T. ) ;
#139 = PERSON_AND_ORGANIZATION ( #31, #201 ) ;
#140 = ADVANCED_FACE ( 'NONE', ( #98 ), #151, .F. ) ;
#141 = ORIENTED_EDGE ( 'NONE', *, *, #58, .F. ) ;
#142 = SECURITY_CLASSIFICATION ( '', '', #153 ) ;
#143 = APPROVAL_STATUS ( 'not_yet_approved' ) ;
#144 = COORDINATED_UNIVERSAL_TIME_OFFSET ( 2, 0, .AHEAD. ) ;
#145 = EDGE_LOOP ( 'NONE', ( #141, #13, #163, #162 ) ) ;
#146 = CARTESIAN_POINT ( 'NONE',  ( 1.994931997373328159E-14, 0.000000000000000000, 152.8655313939799782 ) ) ;
#147 = CALENDAR_DATE ( 2021, 25, 2 ) ;
#148 = ADVANCED_BREP_SHAPE_REPRESENTATION ( '010-1107E_UVFS_PCV_window', ( #161, #186 ), #45 ) ;
#149 = EDGE_LOOP ( 'NONE', ( #164, #94, #173, #85 ) ) ;
#150 = ADVANCED_FACE ( 'NONE', ( #170 ), #74, .F. ) ;
#151 = SPHERICAL_SURFACE ( 'NONE', #199, 150.0000000000000000 ) ;
#152 = ORIENTED_EDGE ( 'NONE', *, *, #119, .F. ) ;
#153 = SECURITY_CLASSIFICATION_LEVEL ( 'unclassified' ) ;
#154 = CYLINDRICAL_SURFACE ( 'NONE', #157, 6.349999999999999645 ) ;
#155 = CC_DESIGN_PERSON_AND_ORGANIZATION_ASSIGNMENT ( #27, #171, ( #158 ) ) ;
#156 = APPROVAL_DATE_TIME ( #50, #79 ) ;
#157 = AXIS2_PLACEMENT_3D ( 'NONE', #113, #99, #184 ) ;
#158 = PRODUCT_DEFINITION_FORMATION_WITH_SPECIFIED_SOURCE ( 'ANY', '', #137, .NOT_KNOWN. ) ;
#159 = PERSON_AND_ORGANIZATION ( #31, #201 ) ;
#160 = EDGE_CURVE ( 'NONE', #69, #36, #122, .T. ) ;
#161 = MANIFOLD_SOLID_BREP ( 'Cut-Revolve1', #10 ) ;
#162 = ORIENTED_EDGE ( 'NONE', *, *, #33, .T. ) ;
#163 = ORIENTED_EDGE ( 'NONE', *, *, #169, .T. ) ;
#164 = ORIENTED_EDGE ( 'NONE', *, *, #160, .T. ) ;
#165 = DESIGN_CONTEXT ( 'detailed design', #42, 'design' ) ;
#166 = LINE ( 'NONE', #168, #41 ) ;
#167 = AXIS2_PLACEMENT_3D ( 'NONE', #62, #191, #192 ) ;
#168 = CARTESIAN_POINT ( 'NONE',  ( 6.349999999999999645, 7.776507174585692163E-16, 3.000000000000000000 ) ) ;
#169 = EDGE_CURVE ( 'NONE', #69, #179, #61, .T. ) ;
#170 = FACE_OUTER_BOUND ( 'NONE', #182, .T. ) ;
#171 = PERSON_AND_ORGANIZATION_ROLE ( 'creator' ) ;
#172 = CIRCLE ( 'NONE', #81, 150.0000000000000000 ) ;
#173 = ORIENTED_EDGE ( 'NONE', *, *, #23, .T. ) ;
#174 = COORDINATED_UNIVERSAL_TIME_OFFSET ( 2, 0, .AHEAD. ) ;
#175 = CARTESIAN_POINT ( 'NONE',  ( -6.349999999999999645, 0.000000000000000000, 3.000000000000000000 ) ) ;
#176 = LOCAL_TIME ( 10, 32, 46.00000000000000000, #108 ) ;
#177 = CC_DESIGN_DATE_AND_TIME_ASSIGNMENT ( #67, #95, ( #9 ) ) ;
#178 = CC_DESIGN_PERSON_AND_ORGANIZATION_ASSIGNMENT ( #25, #200, ( #137 ) ) ;
#179 = VERTEX_POINT ( 'NONE', #80 ) ;
#180 = CC_DESIGN_APPROVAL ( #20, ( #142 ) ) ;
#181 = PERSON_AND_ORGANIZATION ( #31, #201 ) ;
#182 = EDGE_LOOP ( 'NONE', ( #131, #86, #66 ) ) ;
#183 = ADVANCED_FACE ( 'NONE', ( #101 ), #18, .F. ) ;
#184 = DIRECTION ( 'NONE',  ( -1.000000000000000000, 0.000000000000000000, 0.000000000000000000 ) ) ;
#185 = CIRCLE ( 'NONE', #49, 6.349999999999999645 ) ;
#186 = AXIS2_PLACEMENT_3D ( 'NONE', #35, #112, #109 ) ;
#187 = DIRECTION ( 'NONE',  ( 1.000000000000000000, 0.000000000000000000, 0.000000000000000000 ) ) ;
#188 = DIRECTION ( 'NONE',  ( 1.000000000000000000, 0.000000000000000000, 0.000000000000000000 ) ) ;
#189 = DIRECTION ( 'NONE',  ( 0.000000000000000000, -1.000000000000000000, -0.000000000000000000 ) ) ;
#190 = DIRECTION ( 'NONE',  ( 0.000000000000000000, 1.000000000000000000, -0.000000000000000000 ) ) ;
#191 = DIRECTION ( 'NONE',  ( -0.000000000000000000, -0.000000000000000000, -1.000000000000000000 ) ) ;
#192 = DIRECTION ( 'NONE',  ( -1.000000000000000000, 0.000000000000000000, 0.000000000000000000 ) ) ;
#193 = PRODUCT_RELATED_PRODUCT_CATEGORY ( 'detail', '', ( #137 ) ) ;
#194 = ADVANCED_FACE ( 'NONE', ( #138 ), #5, .T. ) ;
#195 = ORIENTED_EDGE ( 'NONE', *, *, #33, .F. ) ;
#196 = CALENDAR_DATE ( 2021, 25, 2 ) ;
#197 = CC_DESIGN_DATE_AND_TIME_ASSIGNMENT ( #6, #118, ( #142 ) ) ;
#198 = FACE_OUTER_BOUND ( 'NONE', #149, .T. ) ;
#199 = AXIS2_PLACEMENT_3D ( 'NONE', #16, #15, #188 ) ;
#200 = PERSON_AND_ORGANIZATION_ROLE ( 'design_owner' ) ;
#201 = ORGANIZATION ( 'UNSPECIFIED', 'UNSPECIFIED', '' ) ;
ENDSEC;
END-ISO-10303-21;
