ISO-10303-21;
HEADER;
FILE_DESCRIPTION (( 'STEP AP203' ),
    '1' );
FILE_NAME ('010-1105T6_UVFS_PCV_window.STEP',
    '2021-02-25T10:32:35',
    ( '' ),
    ( '' ),
    'SwSTEP 2.0',
    'SolidWorks 2019',
    '' );
FILE_SCHEMA (( 'CONFIG_CONTROL_DESIGN' ));
ENDSEC;

DATA;
#1 = DIRECTION ( 'NONE',  ( -0.000000000000000000, -0.000000000000000000, -1.000000000000000000 ) ) ;
#2 = DIRECTION ( 'NONE',  ( 0.000000000000000000, 0.000000000000000000, 1.000000000000000000 ) ) ;
#3 = DIRECTION ( 'NONE',  ( 0.000000000000000000, 0.000000000000000000, 1.000000000000000000 ) ) ;
#4 = CARTESIAN_POINT ( 'NONE',  ( -6.349999999999999645, 0.000000000000000000, 0.000000000000000000 ) ) ;
#5 = PERSON_AND_ORGANIZATION ( #147, #183 ) ;
#6 = ADVANCED_FACE ( 'NONE', ( #96 ), #94, .F. ) ;
#7 = CARTESIAN_POINT ( 'NONE',  ( 1.387778780781445676E-14, 0.000000000000000000, 6.000000000000005329 ) ) ;
#8 =( GEOMETRIC_REPRESENTATION_CONTEXT ( 3 ) GLOBAL_UNCERTAINTY_ASSIGNED_CONTEXT ( ( #189 ) ) GLOBAL_UNIT_ASSIGNED_CONTEXT ( ( #82, #130, #51 ) ) REPRESENTATION_CONTEXT ( 'NONE', 'WORKASPACE' ) );
#9 = CALENDAR_DATE ( 2021, 25, 2 ) ;
#10 = CALENDAR_DATE ( 2021, 25, 2 ) ;
#11 = DATE_AND_TIME ( #25, #198 ) ;
#12 = AXIS2_PLACEMENT_3D ( 'NONE', #66, #142, #158 ) ;
#13 = APPROVAL_PERSON_ORGANIZATION ( #70, #47, #68 ) ;
#14 = SHAPE_DEFINITION_REPRESENTATION ( #150, #111 ) ;
#15 = CC_DESIGN_PERSON_AND_ORGANIZATION_ASSIGNMENT ( #102, #196, ( #153 ) ) ;
#16 = MANIFOLD_SOLID_BREP ( 'Cut-Revolve1', #26 ) ;
#17 = CC_DESIGN_PERSON_AND_ORGANIZATION_ASSIGNMENT ( #28, #177, ( #200 ) ) ;
#18 = EDGE_LOOP ( 'NONE', ( #91, #92, #201, #123 ) ) ;
#19 = LINE ( 'NONE', #81, #192 ) ;
#20 = DIRECTION ( 'NONE',  ( -0.000000000000000000, -0.000000000000000000, -1.000000000000000000 ) ) ;
#21 = CARTESIAN_POINT ( 'NONE',  ( 1.387778780781445676E-14, 0.000000000000000000, 105.7981838512104531 ) ) ;
#22 = DIRECTION ( 'NONE',  ( 1.000000000000000000, 0.000000000000000000, 0.000000000000000000 ) ) ;
#23 = PRODUCT_RELATED_PRODUCT_CATEGORY ( 'detail', '', ( #72 ) ) ;
#24 = PERSON_AND_ORGANIZATION ( #147, #183 ) ;
#25 = CALENDAR_DATE ( 2021, 25, 2 ) ;
#26 = CLOSED_SHELL ( 'NONE', ( #85, #27, #168, #6, #113 ) ) ;
#27 = ADVANCED_FACE ( 'NONE', ( #154 ), #76, .T. ) ;
#28 = PERSON_AND_ORGANIZATION ( #147, #183 ) ;
#29 = VERTEX_POINT ( 'NONE', #155 ) ;
#30 = APPROVAL ( #41, 'UNSPECIFIED' ) ;
#31 = CC_DESIGN_APPROVAL ( #47, ( #153 ) ) ;
#32 = DIRECTION ( 'NONE',  ( -0.000000000000000000, -0.000000000000000000, -1.000000000000000000 ) ) ;
#33 = CARTESIAN_POINT ( 'NONE',  ( 1.387778780781445676E-14, 0.000000000000000000, 105.7981838512104531 ) ) ;
#34 = ORIENTED_EDGE ( 'NONE', *, *, #133, .F. ) ;
#35 = DIRECTION ( 'NONE',  ( -1.000000000000000000, 0.000000000000000000, 0.000000000000000000 ) ) ;
#36 = DIRECTION ( 'NONE',  ( 0.000000000000000000, 0.000000000000000000, 1.000000000000000000 ) ) ;
#37 = CIRCLE ( 'NONE', #149, 6.350000000000028066 ) ;
#38 = DIRECTION ( 'NONE',  ( 1.000000000000000000, 1.224646799147353207E-16, 0.000000000000000000 ) ) ;
#39 = DIRECTION ( 'NONE',  ( -0.000000000000000000, -0.000000000000000000, -1.000000000000000000 ) ) ;
#40 = SECURITY_CLASSIFICATION_LEVEL ( 'unclassified' ) ;
#41 = APPROVAL_STATUS ( 'not_yet_approved' ) ;
#42 = APPROVAL_ROLE ( '' ) ;
#43 = EDGE_CURVE ( 'NONE', #185, #60, #19, .T. ) ;
#44 = AXIS2_PLACEMENT_3D ( 'NONE', #79, #144, #38 ) ;
#45 = CC_DESIGN_APPROVAL ( #30, ( #56 ) ) ;
#46 = EDGE_LOOP ( 'NONE', ( #108, #62, #167 ) ) ;
#47 = APPROVAL ( #195, 'UNSPECIFIED' ) ;
#48 = ORIENTED_EDGE ( 'NONE', *, *, #197, .F. ) ;
#49 = EDGE_LOOP ( 'NONE', ( #48, #74 ) ) ;
#50 = CYLINDRICAL_SURFACE ( 'NONE', #105, 6.349999999999999645 ) ;
#51 =( NAMED_UNIT ( * ) SI_UNIT ( $, .STERADIAN. ) SOLID_ANGLE_UNIT ( ) );
#52 = PERSON_AND_ORGANIZATION ( #147, #183 ) ;
#53 = DATE_AND_TIME ( #152, #173 ) ;
#54 = APPROVAL_STATUS ( 'not_yet_approved' ) ;
#55 = DATE_AND_TIME ( #9, #165 ) ;
#56 = SECURITY_CLASSIFICATION ( '', '', #40 ) ;
#57 = LOCAL_TIME ( 12, 32, 35.00000000000000000, #163 ) ;
#58 = ORIENTED_EDGE ( 'NONE', *, *, #151, .T. ) ;
#59 = EDGE_CURVE ( 'NONE', #29, #124, #141, .T. ) ;
#60 = VERTEX_POINT ( 'NONE', #4 ) ;
#61 = DIRECTION ( 'NONE',  ( 0.000000000000000000, -1.000000000000000000, -0.000000000000000000 ) ) ;
#62 = ORIENTED_EDGE ( 'NONE', *, *, #106, .T. ) ;
#63 = CARTESIAN_POINT ( 'NONE',  ( 2.000102180355122047E-14, 0.000000000000000000, 5.798183851210447770 ) ) ;
#64 = DIRECTION ( 'NONE',  ( -1.000000000000000000, 0.000000000000000000, 0.000000000000000000 ) ) ;
#65 = APPLICATION_PROTOCOL_DEFINITION ( 'international standard', 'config_control_design', 1994, #159 ) ;
#66 = CARTESIAN_POINT ( 'NONE',  ( 0.000000000000000000, 0.000000000000000000, 0.000000000000000000 ) ) ;
#67 = AXIS2_PLACEMENT_3D ( 'NONE', #129, #61, #22 ) ;
#68 = APPROVAL_ROLE ( '' ) ;
#69 = CIRCLE ( 'NONE', #160, 6.349999999999999645 ) ;
#70 = PERSON_AND_ORGANIZATION ( #147, #183 ) ;
#71 = APPLICATION_CONTEXT ( 'configuration controlled 3d designs of mechanical parts and assemblies' ) ;
#72 = PRODUCT ( '010-1105T6_UVFS_PCV_window', '010-1105T6_UVFS_PCV_window', '', ( #83 ) ) ;
#73 = EDGE_CURVE ( 'NONE', #124, #60, #69, .T. ) ;
#74 = ORIENTED_EDGE ( 'NONE', *, *, #73, .F. ) ;
#75 = CIRCLE ( 'NONE', #44, 100.0000000000000000 ) ;
#76 = CYLINDRICAL_SURFACE ( 'NONE', #93, 6.349999999999999645 ) ;
#77 = APPROVAL ( #54, 'UNSPECIFIED' ) ;
#78 = DIRECTION ( 'NONE',  ( -0.000000000000000000, -0.000000000000000000, -1.000000000000000000 ) ) ;
#79 = CARTESIAN_POINT ( 'NONE',  ( 1.387778780781445676E-14, 0.000000000000000000, 105.7981838512104531 ) ) ;
#80 = CC_DESIGN_SECURITY_CLASSIFICATION ( #56, ( #200 ) ) ;
#81 = CARTESIAN_POINT ( 'NONE',  ( -6.349999999999999645, 0.000000000000000000, 6.000000000000000000 ) ) ;
#82 =( LENGTH_UNIT ( ) NAMED_UNIT ( * ) SI_UNIT ( .MILLI., .METRE. ) );
#83 = MECHANICAL_CONTEXT ( 'NONE', #159, 'mechanical' ) ;
#84 = DIRECTION ( 'NONE',  ( 1.000000000000000000, 0.000000000000000000, 0.000000000000000000 ) ) ;
#85 = ADVANCED_FACE ( 'NONE', ( #110 ), #174, .F. ) ;
#86 = FACE_OUTER_BOUND ( 'NONE', #187, .T. ) ;
#87 = APPROVAL_DATE_TIME ( #11, #77 ) ;
#88 = APPROVAL_PERSON_ORGANIZATION ( #164, #30, #132 ) ;
#89 = PERSON_AND_ORGANIZATION ( #147, #183 ) ;
#90 = COORDINATED_UNIVERSAL_TIME_OFFSET ( 2, 0, .AHEAD. ) ;
#91 = ORIENTED_EDGE ( 'NONE', *, *, #59, .F. ) ;
#92 = ORIENTED_EDGE ( 'NONE', *, *, #133, .T. ) ;
#93 = AXIS2_PLACEMENT_3D ( 'NONE', #138, #32, #64 ) ;
#94 = PLANE ( 'NONE',  #137 ) ;
#95 = FACE_OUTER_BOUND ( 'NONE', #18, .T. ) ;
#96 = FACE_OUTER_BOUND ( 'NONE', #49, .T. ) ;
#97 = CARTESIAN_POINT ( 'NONE',  ( -6.350000000000013856, 0.000000000000000000, 6.000000000000005329 ) ) ;
#98 = DIRECTION ( 'NONE',  ( 1.000000000000000000, 0.000000000000000000, 0.000000000000000000 ) ) ;
#99 = CIRCLE ( 'NONE', #115, 6.350000000000028066 ) ;
#100 = CIRCLE ( 'NONE', #12, 6.349999999999999645 ) ;
#101 = DIRECTION ( 'NONE',  ( 1.000000000000000000, 0.000000000000000000, 0.000000000000000000 ) ) ;
#102 = PERSON_AND_ORGANIZATION ( #147, #183 ) ;
#103 = APPROVAL_DATE_TIME ( #53, #30 ) ;
#104 = APPROVAL_DATE_TIME ( #55, #47 ) ;
#105 = AXIS2_PLACEMENT_3D ( 'NONE', #143, #156, #35 ) ;
#106 = EDGE_CURVE ( 'NONE', #185, #109, #75, .T. ) ;
#107 = EDGE_LOOP ( 'NONE', ( #128, #199, #135, #171 ) ) ;
#108 = ORIENTED_EDGE ( 'NONE', *, *, #121, .F. ) ;
#109 = VERTEX_POINT ( 'NONE', #63 ) ;
#110 = FACE_OUTER_BOUND ( 'NONE', #46, .T. ) ;
#111 = ADVANCED_BREP_SHAPE_REPRESENTATION ( '010-1105T6_UVFS_PCV_window', ( #16, #122 ), #8 ) ;
#112 = CARTESIAN_POINT ( 'NONE',  ( 1.387778780781445676E-14, 0.000000000000000000, 6.000000000000005329 ) ) ;
#113 = ADVANCED_FACE ( 'NONE', ( #86 ), #116, .F. ) ;
#114 = AXIS2_PLACEMENT_3D ( 'NONE', #21, #125, #127 ) ;
#115 = AXIS2_PLACEMENT_3D ( 'NONE', #112, #39, #84 ) ;
#116 = SPHERICAL_SURFACE ( 'NONE', #114, 100.0000000000000000 ) ;
#117 = DATE_TIME_ROLE ( 'creation_date' ) ;
#118 = CC_DESIGN_PERSON_AND_ORGANIZATION_ASSIGNMENT ( #89, #178, ( #56 ) ) ;
#119 = PERSON_AND_ORGANIZATION_ROLE ( 'creator' ) ;
#120 = CALENDAR_DATE ( 2021, 25, 2 ) ;
#121 = EDGE_CURVE ( 'NONE', #185, #29, #37, .T. ) ;
#122 = AXIS2_PLACEMENT_3D ( 'NONE', #162, #36, #98 ) ;
#123 = ORIENTED_EDGE ( 'NONE', *, *, #197, .T. ) ;
#124 = VERTEX_POINT ( 'NONE', #172 ) ;
#125 = DIRECTION ( 'NONE',  ( 0.000000000000000000, -1.000000000000000000, -0.000000000000000000 ) ) ;
#126 = ORIENTED_EDGE ( 'NONE', *, *, #106, .F. ) ;
#127 = DIRECTION ( 'NONE',  ( 1.000000000000000000, 0.000000000000000000, 0.000000000000000000 ) ) ;
#128 = ORIENTED_EDGE ( 'NONE', *, *, #121, .T. ) ;
#129 = CARTESIAN_POINT ( 'NONE',  ( 1.387778780781445676E-14, 0.000000000000000000, 105.7981838512104531 ) ) ;
#130 =( NAMED_UNIT ( * ) PLANE_ANGLE_UNIT ( ) SI_UNIT ( $, .RADIAN. ) );
#131 = PERSON_AND_ORGANIZATION_ROLE ( 'design_owner' ) ;
#132 = APPROVAL_ROLE ( '' ) ;
#133 = EDGE_CURVE ( 'NONE', #29, #185, #99, .T. ) ;
#134 = CC_DESIGN_PERSON_AND_ORGANIZATION_ASSIGNMENT ( #24, #119, ( #200 ) ) ;
#135 = ORIENTED_EDGE ( 'NONE', *, *, #73, .T. ) ;
#136 = AXIS2_PLACEMENT_3D ( 'NONE', #33, #161, #188 ) ;
#137 = AXIS2_PLACEMENT_3D ( 'NONE', #169, #3, #157 ) ;
#138 = CARTESIAN_POINT ( 'NONE',  ( 0.000000000000000000, 0.000000000000000000, 6.000000000000000000 ) ) ;
#139 = CARTESIAN_POINT ( 'NONE',  ( 6.349999999999999645, 7.776507174585692163E-16, 6.000000000000000000 ) ) ;
#140 = CC_DESIGN_APPROVAL ( #77, ( #200 ) ) ;
#141 = LINE ( 'NONE', #139, #184 ) ;
#142 = DIRECTION ( 'NONE',  ( 0.000000000000000000, 0.000000000000000000, 1.000000000000000000 ) ) ;
#143 = CARTESIAN_POINT ( 'NONE',  ( 0.000000000000000000, 0.000000000000000000, 6.000000000000000000 ) ) ;
#144 = DIRECTION ( 'NONE',  ( 1.224646799147353207E-16, -1.000000000000000000, 0.000000000000000000 ) ) ;
#145 = DATE_AND_TIME ( #10, #146 ) ;
#146 = LOCAL_TIME ( 12, 32, 35.00000000000000000, #148 ) ;
#147 = PERSON ( 'UNSPECIFIED', 'UNSPECIFIED', 'UNSPECIFIED', ('UNSPECIFIED'), ('UNSPECIFIED'), ('UNSPECIFIED') ) ;
#148 = COORDINATED_UNIVERSAL_TIME_OFFSET ( 2, 0, .AHEAD. ) ;
#149 = AXIS2_PLACEMENT_3D ( 'NONE', #7, #20, #101 ) ;
#150 = PRODUCT_DEFINITION_SHAPE ( 'NONE', 'NONE',  #153 ) ;
#151 = EDGE_CURVE ( 'NONE', #29, #109, #190, .T. ) ;
#152 = CALENDAR_DATE ( 2021, 25, 2 ) ;
#153 = PRODUCT_DEFINITION ( 'UNKNOWN', '', #200, #181 ) ;
#154 = FACE_OUTER_BOUND ( 'NONE', #107, .T. ) ;
#155 = CARTESIAN_POINT ( 'NONE',  ( 6.350000000000042277, 7.776507174585744425E-16, 6.000000000000005329 ) ) ;
#156 = DIRECTION ( 'NONE',  ( -0.000000000000000000, -0.000000000000000000, -1.000000000000000000 ) ) ;
#157 = DIRECTION ( 'NONE',  ( 1.000000000000000000, 0.000000000000000000, -0.000000000000000000 ) ) ;
#158 = DIRECTION ( 'NONE',  ( 1.000000000000000000, 0.000000000000000000, 0.000000000000000000 ) ) ;
#159 = APPLICATION_CONTEXT ( 'configuration controlled 3d designs of mechanical parts and assemblies' ) ;
#160 = AXIS2_PLACEMENT_3D ( 'NONE', #186, #2, #170 ) ;
#161 = DIRECTION ( 'NONE',  ( 0.000000000000000000, 1.000000000000000000, -0.000000000000000000 ) ) ;
#162 = CARTESIAN_POINT ( 'NONE',  ( 0.000000000000000000, 0.000000000000000000, 0.000000000000000000 ) ) ;
#163 = COORDINATED_UNIVERSAL_TIME_OFFSET ( 2, 0, .AHEAD. ) ;
#164 = PERSON_AND_ORGANIZATION ( #147, #183 ) ;
#165 = LOCAL_TIME ( 12, 32, 35.00000000000000000, #193 ) ;
#166 = COORDINATED_UNIVERSAL_TIME_OFFSET ( 2, 0, .AHEAD. ) ;
#167 = ORIENTED_EDGE ( 'NONE', *, *, #151, .F. ) ;
#168 = ADVANCED_FACE ( 'NONE', ( #95 ), #50, .T. ) ;
#169 = CARTESIAN_POINT ( 'NONE',  ( 0.000000000000000000, 0.000000000000000000, 0.000000000000000000 ) ) ;
#170 = DIRECTION ( 'NONE',  ( 1.000000000000000000, 0.000000000000000000, 0.000000000000000000 ) ) ;
#171 = ORIENTED_EDGE ( 'NONE', *, *, #43, .F. ) ;
#172 = CARTESIAN_POINT ( 'NONE',  ( 6.349999999999999645, 7.776507174585692163E-16, 0.000000000000000000 ) ) ;
#173 = LOCAL_TIME ( 12, 32, 35.00000000000000000, #90 ) ;
#174 = SPHERICAL_SURFACE ( 'NONE', #67, 100.0000000000000000 ) ;
#175 = APPROVAL_PERSON_ORGANIZATION ( #52, #77, #42 ) ;
#176 = CC_DESIGN_DATE_AND_TIME_ASSIGNMENT ( #179, #117, ( #153 ) ) ;
#177 = PERSON_AND_ORGANIZATION_ROLE ( 'design_supplier' ) ;
#178 = PERSON_AND_ORGANIZATION_ROLE ( 'classification_officer' ) ;
#179 = DATE_AND_TIME ( #120, #57 ) ;
#180 = DATE_TIME_ROLE ( 'classification_date' ) ;
#181 = DESIGN_CONTEXT ( 'detailed design', #71, 'design' ) ;
#182 = CC_DESIGN_DATE_AND_TIME_ASSIGNMENT ( #145, #180, ( #56 ) ) ;
#183 = ORGANIZATION ( 'UNSPECIFIED', 'UNSPECIFIED', '' ) ;
#184 = VECTOR ( 'NONE', #1, 1000.000000000000000 ) ;
#185 = VERTEX_POINT ( 'NONE', #97 ) ;
#186 = CARTESIAN_POINT ( 'NONE',  ( 0.000000000000000000, 0.000000000000000000, 0.000000000000000000 ) ) ;
#187 = EDGE_LOOP ( 'NONE', ( #126, #34, #58 ) ) ;
#188 = DIRECTION ( 'NONE',  ( 0.000000000000000000, 0.000000000000000000, 1.000000000000000000 ) ) ;
#189 = UNCERTAINTY_MEASURE_WITH_UNIT (LENGTH_MEASURE( 1.000000000000000082E-05 ), #82, 'distance_accuracy_value', 'NONE');
#190 = CIRCLE ( 'NONE', #136, 100.0000000000000000 ) ;
#191 = CC_DESIGN_PERSON_AND_ORGANIZATION_ASSIGNMENT ( #5, #131, ( #72 ) ) ;
#192 = VECTOR ( 'NONE', #78, 1000.000000000000000 ) ;
#193 = COORDINATED_UNIVERSAL_TIME_OFFSET ( 2, 0, .AHEAD. ) ;
#194 = APPLICATION_PROTOCOL_DEFINITION ( 'international standard', 'config_control_design', 1994, #71 ) ;
#195 = APPROVAL_STATUS ( 'not_yet_approved' ) ;
#196 = PERSON_AND_ORGANIZATION_ROLE ( 'creator' ) ;
#197 = EDGE_CURVE ( 'NONE', #60, #124, #100, .T. ) ;
#198 = LOCAL_TIME ( 12, 32, 35.00000000000000000, #166 ) ;
#199 = ORIENTED_EDGE ( 'NONE', *, *, #59, .T. ) ;
#200 = PRODUCT_DEFINITION_FORMATION_WITH_SPECIFIED_SOURCE ( 'ANY', '', #72, .NOT_KNOWN. ) ;
#201 = ORIENTED_EDGE ( 'NONE', *, *, #43, .T. ) ;
ENDSEC;
END-ISO-10303-21;
