ISO-10303-21;
HEADER;
FILE_DESCRIPTION (( 'STEP AP203' ),
    '1' );
FILE_NAME ('010-1105E_UVFS_PCV_window.STEP',
    '2021-02-25T08:32:21',
    ( '' ),
    ( '' ),
    'SwSTEP 2.0',
    'SolidWorks 2019',
    '' );
FILE_SCHEMA (( 'CONFIG_CONTROL_DESIGN' ));
ENDSEC;

DATA;
#1 = CC_DESIGN_DATE_AND_TIME_ASSIGNMENT ( #53, #74, ( #149 ) ) ;
#2 = EDGE_CURVE ( 'NONE', #47, #137, #136, .T. ) ;
#3 = DIRECTION ( 'NONE',  ( -0.000000000000000000, -0.000000000000000000, -1.000000000000000000 ) ) ;
#4 = AXIS2_PLACEMENT_3D ( 'NONE', #22, #175, #67 ) ;
#5 = CARTESIAN_POINT ( 'NONE',  ( 2.000102180355122047E-14, 0.000000000000000000, 2.798183851210445106 ) ) ;
#6 =( NAMED_UNIT ( * ) PLANE_ANGLE_UNIT ( ) SI_UNIT ( $, .RADIAN. ) );
#7 = DIRECTION ( 'NONE',  ( 0.000000000000000000, 0.000000000000000000, 1.000000000000000000 ) ) ;
#8 = DIRECTION ( 'NONE',  ( 1.000000000000000000, 0.000000000000000000, 0.000000000000000000 ) ) ;
#9 = PRODUCT ( '010-1105E_UVFS_PCV_window', '010-1105E_UVFS_PCV_window', '', ( #140 ) ) ;
#10 = APPROVAL ( #148, 'UNSPECIFIED' ) ;
#11 = PERSON_AND_ORGANIZATION ( #84, #162 ) ;
#12 = DATE_TIME_ROLE ( 'creation_date' ) ;
#13 = AXIS2_PLACEMENT_3D ( 'NONE', #142, #123, #83 ) ;
#14 = LOCAL_TIME ( 10, 32, 21.00000000000000000, #85 ) ;
#15 = DIRECTION ( 'NONE',  ( 1.000000000000000000, 0.000000000000000000, 0.000000000000000000 ) ) ;
#16 = EDGE_LOOP ( 'NONE', ( #79, #104, #132, #186 ) ) ;
#17 = ORIENTED_EDGE ( 'NONE', *, *, #2, .T. ) ;
#18 = CARTESIAN_POINT ( 'NONE',  ( 6.350000000000042277, 7.776507174585744425E-16, 3.000000000000002665 ) ) ;
#19 = AXIS2_PLACEMENT_3D ( 'NONE', #51, #174, #50 ) ;
#20 = DIRECTION ( 'NONE',  ( 1.000000000000000000, 0.000000000000000000, 0.000000000000000000 ) ) ;
#21 = CC_DESIGN_PERSON_AND_ORGANIZATION_ASSIGNMENT ( #161, #111, ( #9 ) ) ;
#22 = CARTESIAN_POINT ( 'NONE',  ( 1.387778780781445676E-14, 0.000000000000000000, 102.7981838512104531 ) ) ;
#23 = APPLICATION_PROTOCOL_DEFINITION ( 'international standard', 'config_control_design', 1994, #43 ) ;
#24 = CC_DESIGN_APPROVAL ( #10, ( #149 ) ) ;
#25 = SECURITY_CLASSIFICATION_LEVEL ( 'unclassified' ) ;
#26 = APPLICATION_CONTEXT ( 'configuration controlled 3d designs of mechanical parts and assemblies' ) ;
#27 = VECTOR ( 'NONE', #103, 1000.000000000000000 ) ;
#28 = ADVANCED_FACE ( 'NONE', ( #168 ), #62, .F. ) ;
#29 = PERSON_AND_ORGANIZATION ( #84, #162 ) ;
#30 = CIRCLE ( 'NONE', #152, 6.350000000000028066 ) ;
#31 = DESIGN_CONTEXT ( 'detailed design', #26, 'design' ) ;
#32 = ORIENTED_EDGE ( 'NONE', *, *, #160, .T. ) ;
#33 = LINE ( 'NONE', #199, #120 ) ;
#34 = LOCAL_TIME ( 10, 32, 21.00000000000000000, #197 ) ;
#35 = ORIENTED_EDGE ( 'NONE', *, *, #160, .F. ) ;
#36 = EDGE_CURVE ( 'NONE', #188, #117, #33, .T. ) ;
#37 = PRODUCT_RELATED_PRODUCT_CATEGORY ( 'detail', '', ( #9 ) ) ;
#38 = CARTESIAN_POINT ( 'NONE',  ( 1.387778780781445676E-14, 0.000000000000000000, 102.7981838512104531 ) ) ;
#39 = CALENDAR_DATE ( 2021, 25, 2 ) ;
#40 = AXIS2_PLACEMENT_3D ( 'NONE', #189, #48, #105 ) ;
#41 = APPROVAL_ROLE ( '' ) ;
#42 = PERSON_AND_ORGANIZATION_ROLE ( 'classification_officer' ) ;
#43 = APPLICATION_CONTEXT ( 'configuration controlled 3d designs of mechanical parts and assemblies' ) ;
#44 = ORIENTED_EDGE ( 'NONE', *, *, #61, .T. ) ;
#45 = CC_DESIGN_PERSON_AND_ORGANIZATION_ASSIGNMENT ( #55, #144, ( #94 ) ) ;
#46 = ORIENTED_EDGE ( 'NONE', *, *, #61, .F. ) ;
#47 = VERTEX_POINT ( 'NONE', #18 ) ;
#48 = DIRECTION ( 'NONE',  ( -0.000000000000000000, -0.000000000000000000, -1.000000000000000000 ) ) ;
#49 = LOCAL_TIME ( 10, 32, 21.00000000000000000, #196 ) ;
#50 = DIRECTION ( 'NONE',  ( 1.000000000000000000, 0.000000000000000000, 0.000000000000000000 ) ) ;
#51 = CARTESIAN_POINT ( 'NONE',  ( 0.000000000000000000, 0.000000000000000000, 0.000000000000000000 ) ) ;
#52 = CIRCLE ( 'NONE', #194, 100.0000000000000000 ) ;
#53 = DATE_AND_TIME ( #100, #49 ) ;
#54 = CC_DESIGN_PERSON_AND_ORGANIZATION_ASSIGNMENT ( #114, #183, ( #94 ) ) ;
#55 = PERSON_AND_ORGANIZATION ( #84, #162 ) ;
#56 = DATE_AND_TIME ( #97, #14 ) ;
#57 = DATE_AND_TIME ( #181, #88 ) ;
#58 = APPROVAL_DATE_TIME ( #178, #145 ) ;
#59 = AXIS2_PLACEMENT_3D ( 'NONE', #38, #66, #20 ) ;
#60 = DIRECTION ( 'NONE',  ( 1.000000000000000000, 0.000000000000000000, 0.000000000000000000 ) ) ;
#61 = EDGE_CURVE ( 'NONE', #188, #47, #126, .T. ) ;
#62 = SPHERICAL_SURFACE ( 'NONE', #133, 100.0000000000000000 ) ;
#63 = DIRECTION ( 'NONE',  ( -0.000000000000000000, -0.000000000000000000, -1.000000000000000000 ) ) ;
#64 = LOCAL_TIME ( 10, 32, 21.00000000000000000, #179 ) ;
#65 = FACE_OUTER_BOUND ( 'NONE', #118, .T. ) ;
#66 = DIRECTION ( 'NONE',  ( 0.000000000000000000, -1.000000000000000000, -0.000000000000000000 ) ) ;
#67 = DIRECTION ( 'NONE',  ( 0.000000000000000000, 0.000000000000000000, 1.000000000000000000 ) ) ;
#68 = AXIS2_PLACEMENT_3D ( 'NONE', #72, #125, #82 ) ;
#69 = ADVANCED_FACE ( 'NONE', ( #65 ), #121, .T. ) ;
#70 = DIRECTION ( 'NONE',  ( 1.000000000000000000, 1.224646799147353207E-16, 0.000000000000000000 ) ) ;
#71 =( LENGTH_UNIT ( ) NAMED_UNIT ( * ) SI_UNIT ( .MILLI., .METRE. ) );
#72 = CARTESIAN_POINT ( 'NONE',  ( 0.000000000000000000, 0.000000000000000000, 0.000000000000000000 ) ) ;
#73 = EDGE_CURVE ( 'NONE', #47, #188, #30, .T. ) ;
#74 = DATE_TIME_ROLE ( 'classification_date' ) ;
#75 = APPROVAL_ROLE ( '' ) ;
#76 = APPROVAL_STATUS ( 'not_yet_approved' ) ;
#77 = ORIENTED_EDGE ( 'NONE', *, *, #98, .F. ) ;
#78 = MANIFOLD_SOLID_BREP ( 'Cut-Revolve1', #156 ) ;
#79 = ORIENTED_EDGE ( 'NONE', *, *, #2, .F. ) ;
#80 = ORIENTED_EDGE ( 'NONE', *, *, #166, .F. ) ;
#81 = CARTESIAN_POINT ( 'NONE',  ( 6.349999999999999645, 7.776507174585692163E-16, 0.000000000000000000 ) ) ;
#82 = DIRECTION ( 'NONE',  ( 1.000000000000000000, 0.000000000000000000, 0.000000000000000000 ) ) ;
#83 = DIRECTION ( 'NONE',  ( -1.000000000000000000, 0.000000000000000000, 0.000000000000000000 ) ) ;
#84 = PERSON ( 'UNSPECIFIED', 'UNSPECIFIED', 'UNSPECIFIED', ('UNSPECIFIED'), ('UNSPECIFIED'), ('UNSPECIFIED') ) ;
#85 = COORDINATED_UNIVERSAL_TIME_OFFSET ( 2, 0, .AHEAD. ) ;
#86 = APPROVAL_DATE_TIME ( #57, #134 ) ;
#87 = APPLICATION_PROTOCOL_DEFINITION ( 'international standard', 'config_control_design', 1994, #26 ) ;
#88 = LOCAL_TIME ( 10, 32, 21.00000000000000000, #127 ) ;
#89 = ORIENTED_EDGE ( 'NONE', *, *, #36, .F. ) ;
#90 = ORIENTED_EDGE ( 'NONE', *, *, #73, .F. ) ;
#91 = CARTESIAN_POINT ( 'NONE',  ( 6.349999999999999645, 7.776507174585692163E-16, 3.000000000000000000 ) ) ;
#92 = ADVANCED_FACE ( 'NONE', ( #191 ), #139, .T. ) ;
#93 = DIRECTION ( 'NONE',  ( 0.000000000000000000, 0.000000000000000000, 1.000000000000000000 ) ) ;
#94 = PRODUCT_DEFINITION_FORMATION_WITH_SPECIFIED_SOURCE ( 'ANY', '', #9, .NOT_KNOWN. ) ;
#95 = DIRECTION ( 'NONE',  ( 1.000000000000000000, 0.000000000000000000, -0.000000000000000000 ) ) ;
#96 = PERSON_AND_ORGANIZATION ( #84, #162 ) ;
#97 = CALENDAR_DATE ( 2021, 25, 2 ) ;
#98 = EDGE_CURVE ( 'NONE', #117, #137, #184, .T. ) ;
#99 = APPROVAL_DATE_TIME ( #56, #10 ) ;
#100 = CALENDAR_DATE ( 2021, 25, 2 ) ;
#101 = UNCERTAINTY_MEASURE_WITH_UNIT (LENGTH_MEASURE( 1.000000000000000082E-05 ), #71, 'distance_accuracy_value', 'NONE');
#102 = ORIENTED_EDGE ( 'NONE', *, *, #190, .F. ) ;
#103 = DIRECTION ( 'NONE',  ( -0.000000000000000000, -0.000000000000000000, -1.000000000000000000 ) ) ;
#104 = ORIENTED_EDGE ( 'NONE', *, *, #73, .T. ) ;
#105 = DIRECTION ( 'NONE',  ( -1.000000000000000000, 0.000000000000000000, 0.000000000000000000 ) ) ;
#106 = CARTESIAN_POINT ( 'NONE',  ( -6.350000000000013856, 0.000000000000000000, 3.000000000000002665 ) ) ;
#107 = SPHERICAL_SURFACE ( 'NONE', #59, 100.0000000000000000 ) ;
#108 = DIRECTION ( 'NONE',  ( 1.000000000000000000, 0.000000000000000000, 0.000000000000000000 ) ) ;
#109 = CIRCLE ( 'NONE', #146, 6.349999999999999645 ) ;
#110 = CARTESIAN_POINT ( 'NONE',  ( 0.000000000000000000, 0.000000000000000000, 0.000000000000000000 ) ) ;
#111 = PERSON_AND_ORGANIZATION_ROLE ( 'design_owner' ) ;
#112 = CC_DESIGN_APPROVAL ( #145, ( #185 ) ) ;
#113 = SHAPE_DEFINITION_REPRESENTATION ( #116, #130 ) ;
#114 = PERSON_AND_ORGANIZATION ( #84, #162 ) ;
#115 =( GEOMETRIC_REPRESENTATION_CONTEXT ( 3 ) GLOBAL_UNCERTAINTY_ASSIGNED_CONTEXT ( ( #101 ) ) GLOBAL_UNIT_ASSIGNED_CONTEXT ( ( #71, #6, #172 ) ) REPRESENTATION_CONTEXT ( 'NONE', 'WORKASPACE' ) );
#116 = PRODUCT_DEFINITION_SHAPE ( 'NONE', 'NONE',  #185 ) ;
#117 = VERTEX_POINT ( 'NONE', #155 ) ;
#118 = EDGE_LOOP ( 'NONE', ( #44, #17, #32, #89 ) ) ;
#119 = CARTESIAN_POINT ( 'NONE',  ( 1.387778780781445676E-14, 0.000000000000000000, 3.000000000000002665 ) ) ;
#120 = VECTOR ( 'NONE', #63, 1000.000000000000000 ) ;
#121 = CYLINDRICAL_SURFACE ( 'NONE', #40, 6.349999999999999645 ) ;
#122 = ADVANCED_FACE ( 'NONE', ( #173 ), #107, .F. ) ;
#123 = DIRECTION ( 'NONE',  ( -0.000000000000000000, -0.000000000000000000, -1.000000000000000000 ) ) ;
#124 = CC_DESIGN_PERSON_AND_ORGANIZATION_ASSIGNMENT ( #96, #42, ( #149 ) ) ;
#125 = DIRECTION ( 'NONE',  ( 0.000000000000000000, 0.000000000000000000, 1.000000000000000000 ) ) ;
#126 = CIRCLE ( 'NONE', #165, 6.350000000000028066 ) ;
#127 = COORDINATED_UNIVERSAL_TIME_OFFSET ( 2, 0, .AHEAD. ) ;
#128 = APPROVAL_ROLE ( '' ) ;
#129 = PERSON_AND_ORGANIZATION ( #84, #162 ) ;
#130 = ADVANCED_BREP_SHAPE_REPRESENTATION ( '010-1105E_UVFS_PCV_window', ( #78, #68 ), #115 ) ;
#131 = APPROVAL_PERSON_ORGANIZATION ( #29, #10, #41 ) ;
#132 = ORIENTED_EDGE ( 'NONE', *, *, #36, .T. ) ;
#133 = AXIS2_PLACEMENT_3D ( 'NONE', #135, #201, #15 ) ;
#134 = APPROVAL ( #164, 'UNSPECIFIED' ) ;
#135 = CARTESIAN_POINT ( 'NONE',  ( 1.387778780781445676E-14, 0.000000000000000000, 102.7981838512104531 ) ) ;
#136 = LINE ( 'NONE', #91, #27 ) ;
#137 = VERTEX_POINT ( 'NONE', #81 ) ;
#138 = AXIS2_PLACEMENT_3D ( 'NONE', #110, #7, #95 ) ;
#139 = CYLINDRICAL_SURFACE ( 'NONE', #13, 6.349999999999999645 ) ;
#140 = MECHANICAL_CONTEXT ( 'NONE', #43, 'mechanical' ) ;
#141 = CARTESIAN_POINT ( 'NONE',  ( 1.387778780781445676E-14, 0.000000000000000000, 102.7981838512104531 ) ) ;
#142 = CARTESIAN_POINT ( 'NONE',  ( 0.000000000000000000, 0.000000000000000000, 3.000000000000000000 ) ) ;
#143 = CARTESIAN_POINT ( 'NONE',  ( 0.000000000000000000, 0.000000000000000000, 0.000000000000000000 ) ) ;
#144 = PERSON_AND_ORGANIZATION_ROLE ( 'creator' ) ;
#145 = APPROVAL ( #76, 'UNSPECIFIED' ) ;
#146 = AXIS2_PLACEMENT_3D ( 'NONE', #143, #93, #8 ) ;
#147 = CALENDAR_DATE ( 2021, 25, 2 ) ;
#148 = APPROVAL_STATUS ( 'not_yet_approved' ) ;
#149 = SECURITY_CLASSIFICATION ( '', '', #25 ) ;
#150 = CARTESIAN_POINT ( 'NONE',  ( 1.387778780781445676E-14, 0.000000000000000000, 3.000000000000002665 ) ) ;
#151 = EDGE_LOOP ( 'NONE', ( #77, #35 ) ) ;
#152 = AXIS2_PLACEMENT_3D ( 'NONE', #150, #157, #108 ) ;
#153 = EDGE_LOOP ( 'NONE', ( #102, #90, #154 ) ) ;
#154 = ORIENTED_EDGE ( 'NONE', *, *, #166, .T. ) ;
#155 = CARTESIAN_POINT ( 'NONE',  ( -6.349999999999999645, 0.000000000000000000, 0.000000000000000000 ) ) ;
#156 = CLOSED_SHELL ( 'NONE', ( #28, #69, #92, #158, #122 ) ) ;
#157 = DIRECTION ( 'NONE',  ( -0.000000000000000000, -0.000000000000000000, -1.000000000000000000 ) ) ;
#158 = ADVANCED_FACE ( 'NONE', ( #193 ), #192, .F. ) ;
#159 = DIRECTION ( 'NONE',  ( 1.224646799147353207E-16, -1.000000000000000000, 0.000000000000000000 ) ) ;
#160 = EDGE_CURVE ( 'NONE', #137, #117, #109, .T. ) ;
#161 = PERSON_AND_ORGANIZATION ( #84, #162 ) ;
#162 = ORGANIZATION ( 'UNSPECIFIED', 'UNSPECIFIED', '' ) ;
#163 = PERSON_AND_ORGANIZATION ( #84, #162 ) ;
#164 = APPROVAL_STATUS ( 'not_yet_approved' ) ;
#165 = AXIS2_PLACEMENT_3D ( 'NONE', #119, #3, #60 ) ;
#166 = EDGE_CURVE ( 'NONE', #47, #167, #200, .T. ) ;
#167 = VERTEX_POINT ( 'NONE', #5 ) ;
#168 = FACE_OUTER_BOUND ( 'NONE', #187, .T. ) ;
#169 = ORIENTED_EDGE ( 'NONE', *, *, #190, .T. ) ;
#170 = CC_DESIGN_DATE_AND_TIME_ASSIGNMENT ( #195, #12, ( #185 ) ) ;
#171 = CC_DESIGN_APPROVAL ( #134, ( #94 ) ) ;
#172 =( NAMED_UNIT ( * ) SI_UNIT ( $, .STERADIAN. ) SOLID_ANGLE_UNIT ( ) );
#173 = FACE_OUTER_BOUND ( 'NONE', #153, .T. ) ;
#174 = DIRECTION ( 'NONE',  ( 0.000000000000000000, 0.000000000000000000, 1.000000000000000000 ) ) ;
#175 = DIRECTION ( 'NONE',  ( 0.000000000000000000, 1.000000000000000000, -0.000000000000000000 ) ) ;
#176 = APPROVAL_PERSON_ORGANIZATION ( #163, #134, #75 ) ;
#177 = CC_DESIGN_SECURITY_CLASSIFICATION ( #149, ( #94 ) ) ;
#178 = DATE_AND_TIME ( #39, #64 ) ;
#179 = COORDINATED_UNIVERSAL_TIME_OFFSET ( 2, 0, .AHEAD. ) ;
#180 = APPROVAL_PERSON_ORGANIZATION ( #11, #145, #128 ) ;
#181 = CALENDAR_DATE ( 2021, 25, 2 ) ;
#182 = CC_DESIGN_PERSON_AND_ORGANIZATION_ASSIGNMENT ( #129, #198, ( #185 ) ) ;
#183 = PERSON_AND_ORGANIZATION_ROLE ( 'design_supplier' ) ;
#184 = CIRCLE ( 'NONE', #19, 6.349999999999999645 ) ;
#185 = PRODUCT_DEFINITION ( 'UNKNOWN', '', #94, #31 ) ;
#186 = ORIENTED_EDGE ( 'NONE', *, *, #98, .T. ) ;
#187 = EDGE_LOOP ( 'NONE', ( #46, #169, #80 ) ) ;
#188 = VERTEX_POINT ( 'NONE', #106 ) ;
#189 = CARTESIAN_POINT ( 'NONE',  ( 0.000000000000000000, 0.000000000000000000, 3.000000000000000000 ) ) ;
#190 = EDGE_CURVE ( 'NONE', #188, #167, #52, .T. ) ;
#191 = FACE_OUTER_BOUND ( 'NONE', #16, .T. ) ;
#192 = PLANE ( 'NONE',  #138 ) ;
#193 = FACE_OUTER_BOUND ( 'NONE', #151, .T. ) ;
#194 = AXIS2_PLACEMENT_3D ( 'NONE', #141, #159, #70 ) ;
#195 = DATE_AND_TIME ( #147, #34 ) ;
#196 = COORDINATED_UNIVERSAL_TIME_OFFSET ( 2, 0, .AHEAD. ) ;
#197 = COORDINATED_UNIVERSAL_TIME_OFFSET ( 2, 0, .AHEAD. ) ;
#198 = PERSON_AND_ORGANIZATION_ROLE ( 'creator' ) ;
#199 = CARTESIAN_POINT ( 'NONE',  ( -6.349999999999999645, 0.000000000000000000, 3.000000000000000000 ) ) ;
#200 = CIRCLE ( 'NONE', #4, 100.0000000000000000 ) ;
#201 = DIRECTION ( 'NONE',  ( 0.000000000000000000, -1.000000000000000000, -0.000000000000000000 ) ) ;
ENDSEC;
END-ISO-10303-21;
