ISO-10303-21;
HEADER;
FILE_DESCRIPTION (( 'STEP AP203' ),
    '1' );
FILE_NAME ('010-1104T6_UVFS_PCV_window.STEP',
    '2021-02-25T10:32:04',
    ( '' ),
    ( '' ),
    'SwSTEP 2.0',
    'SolidWorks 2019',
    '' );
FILE_SCHEMA (( 'CONFIG_CONTROL_DESIGN' ));
ENDSEC;

DATA;
#1 = APPROVAL_PERSON_ORGANIZATION ( #197, #25, #14 ) ;
#2 = ORIENTED_EDGE ( 'NONE', *, *, #71, .F. ) ;
#3 = FACE_OUTER_BOUND ( 'NONE', #31, .T. ) ;
#4 = DIRECTION ( 'NONE',  ( 1.000000000000000000, 0.000000000000000000, 0.000000000000000000 ) ) ;
#5 = CARTESIAN_POINT ( 'NONE',  ( 0.000000000000000000, 0.000000000000000000, 0.000000000000000000 ) ) ;
#6 = LOCAL_TIME ( 12, 32, 4.000000000000000000, #24 ) ;
#7 = CALENDAR_DATE ( 2021, 25, 2 ) ;
#8 = APPROVAL_ROLE ( '' ) ;
#9 = AXIS2_PLACEMENT_3D ( 'NONE', #95, #32, #124 ) ;
#10 = DATE_AND_TIME ( #119, #142 ) ;
#11 = CC_DESIGN_PERSON_AND_ORGANIZATION_ASSIGNMENT ( #87, #12, ( #75 ) ) ;
#12 = PERSON_AND_ORGANIZATION_ROLE ( 'design_supplier' ) ;
#13 = PERSON_AND_ORGANIZATION_ROLE ( 'classification_officer' ) ;
#14 = APPROVAL_ROLE ( '' ) ;
#15 = VECTOR ( 'NONE', #30, 1000.000000000000000 ) ;
#16 = ORIENTED_EDGE ( 'NONE', *, *, #89, .F. ) ;
#17 = EDGE_LOOP ( 'NONE', ( #2, #63 ) ) ;
#18 = DIRECTION ( 'NONE',  ( 1.000000000000000000, 0.000000000000000000, 0.000000000000000000 ) ) ;
#19 = DIRECTION ( 'NONE',  ( 1.000000000000000000, 1.224646799147353207E-16, 0.000000000000000000 ) ) ;
#20 = CC_DESIGN_PERSON_AND_ORGANIZATION_ASSIGNMENT ( #88, #26, ( #75 ) ) ;
#21 = DIRECTION ( 'NONE',  ( 0.000000000000000000, -1.000000000000000000, -0.000000000000000000 ) ) ;
#22 = DIRECTION ( 'NONE',  ( -0.000000000000000000, -0.000000000000000000, -1.000000000000000000 ) ) ;
#23 = AXIS2_PLACEMENT_3D ( 'NONE', #173, #35, #19 ) ;
#24 = COORDINATED_UNIVERSAL_TIME_OFFSET ( 2, 0, .AHEAD. ) ;
#25 = APPROVAL ( #183, 'UNSPECIFIED' ) ;
#26 = PERSON_AND_ORGANIZATION_ROLE ( 'creator' ) ;
#27 = EDGE_CURVE ( 'NONE', #48, #170, #104, .T. ) ;
#28 = LOCAL_TIME ( 12, 32, 4.000000000000000000, #72 ) ;
#29 = ORIENTED_EDGE ( 'NONE', *, *, #199, .T. ) ;
#30 = DIRECTION ( 'NONE',  ( -0.000000000000000000, -0.000000000000000000, -1.000000000000000000 ) ) ;
#31 = EDGE_LOOP ( 'NONE', ( #123, #121, #91 ) ) ;
#32 = DIRECTION ( 'NONE',  ( 0.000000000000000000, 0.000000000000000000, 1.000000000000000000 ) ) ;
#33 = FACE_OUTER_BOUND ( 'NONE', #43, .T. ) ;
#34 = AXIS2_PLACEMENT_3D ( 'NONE', #36, #109, #49 ) ;
#35 = DIRECTION ( 'NONE',  ( 1.224646799147353207E-16, -1.000000000000000000, 0.000000000000000000 ) ) ;
#36 = CARTESIAN_POINT ( 'NONE',  ( 1.127570259384924611E-14, 0.000000000000000000, 80.73069984952637412 ) ) ;
#37 = DATE_TIME_ROLE ( 'creation_date' ) ;
#38 = PERSON_AND_ORGANIZATION ( #96, #182 ) ;
#39 = DATE_AND_TIME ( #103, #117 ) ;
#40 = COORDINATED_UNIVERSAL_TIME_OFFSET ( 2, 0, .AHEAD. ) ;
#41 = ORIENTED_EDGE ( 'NONE', *, *, #89, .T. ) ;
#42 = EDGE_CURVE ( 'NONE', #134, #185, #83, .T. ) ;
#43 = EDGE_LOOP ( 'NONE', ( #136, #79, #187, #200 ) ) ;
#44 = CARTESIAN_POINT ( 'NONE',  ( 6.349999999999999645, 7.776507174585692163E-16, 6.000000000000000000 ) ) ;
#45 = PRODUCT ( '010-1104T6_UVFS_PCV_window', '010-1104T6_UVFS_PCV_window', '', ( #85 ) ) ;
#46 = EDGE_LOOP ( 'NONE', ( #148, #41, #77, #76 ) ) ;
#47 = FACE_OUTER_BOUND ( 'NONE', #94, .T. ) ;
#48 = VERTEX_POINT ( 'NONE', #99 ) ;
#49 = DIRECTION ( 'NONE',  ( 1.000000000000000000, 0.000000000000000000, 0.000000000000000000 ) ) ;
#50 = DIRECTION ( 'NONE',  ( -0.000000000000000000, -0.000000000000000000, -1.000000000000000000 ) ) ;
#51 = CC_DESIGN_APPROVAL ( #61, ( #125 ) ) ;
#52 = DIRECTION ( 'NONE',  ( 0.000000000000000000, 0.000000000000000000, 1.000000000000000000 ) ) ;
#53 = CC_DESIGN_APPROVAL ( #25, ( #167 ) ) ;
#54 = CC_DESIGN_PERSON_AND_ORGANIZATION_ASSIGNMENT ( #144, #70, ( #125 ) ) ;
#55 =( NAMED_UNIT ( * ) PLANE_ANGLE_UNIT ( ) SI_UNIT ( $, .RADIAN. ) );
#56 = APPLICATION_CONTEXT ( 'configuration controlled 3d designs of mechanical parts and assemblies' ) ;
#57 = CIRCLE ( 'NONE', #131, 6.349999999999999645 ) ;
#58 = PERSON_AND_ORGANIZATION ( #96, #182 ) ;
#59 = CC_DESIGN_APPROVAL ( #151, ( #75 ) ) ;
#60 = CIRCLE ( 'NONE', #128, 6.350000000000028066 ) ;
#61 = APPROVAL ( #100, 'UNSPECIFIED' ) ;
#62 = ORIENTED_EDGE ( 'NONE', *, *, #27, .F. ) ;
#63 = ORIENTED_EDGE ( 'NONE', *, *, #145, .F. ) ;
#64 = LOCAL_TIME ( 12, 32, 4.000000000000000000, #40 ) ;
#65 = DIRECTION ( 'NONE',  ( 1.000000000000000000, 0.000000000000000000, 0.000000000000000000 ) ) ;
#66 = CARTESIAN_POINT ( 'NONE',  ( 1.127570259384924611E-14, 0.000000000000000000, 6.000000000000005329 ) ) ;
#67 = APPLICATION_CONTEXT ( 'configuration controlled 3d designs of mechanical parts and assemblies' ) ;
#68 = FACE_OUTER_BOUND ( 'NONE', #17, .T. ) ;
#69 = LINE ( 'NONE', #82, #15 ) ;
#70 = PERSON_AND_ORGANIZATION_ROLE ( 'creator' ) ;
#71 = EDGE_CURVE ( 'NONE', #150, #185, #90, .T. ) ;
#72 = COORDINATED_UNIVERSAL_TIME_OFFSET ( 2, 0, .AHEAD. ) ;
#73 = SECURITY_CLASSIFICATION_LEVEL ( 'unclassified' ) ;
#74 = COORDINATED_UNIVERSAL_TIME_OFFSET ( 2, 0, .AHEAD. ) ;
#75 = PRODUCT_DEFINITION_FORMATION_WITH_SPECIFIED_SOURCE ( 'ANY', '', #45, .NOT_KNOWN. ) ;
#76 = ORIENTED_EDGE ( 'NONE', *, *, #71, .T. ) ;
#77 = ORIENTED_EDGE ( 'NONE', *, *, #156, .T. ) ;
#78 = CARTESIAN_POINT ( 'NONE',  ( 6.349999999999999645, 7.776507174585692163E-16, 0.000000000000000000 ) ) ;
#79 = ORIENTED_EDGE ( 'NONE', *, *, #42, .T. ) ;
#80 = CYLINDRICAL_SURFACE ( 'NONE', #133, 6.349999999999999645 ) ;
#81 = CARTESIAN_POINT ( 'NONE',  ( 0.000000000000000000, 0.000000000000000000, 0.000000000000000000 ) ) ;
#82 = CARTESIAN_POINT ( 'NONE',  ( -6.349999999999999645, 0.000000000000000000, 6.000000000000000000 ) ) ;
#83 = LINE ( 'NONE', #44, #158 ) ;
#84 =( GEOMETRIC_REPRESENTATION_CONTEXT ( 3 ) GLOBAL_UNCERTAINTY_ASSIGNED_CONTEXT ( ( #93 ) ) GLOBAL_UNIT_ASSIGNED_CONTEXT ( ( #175, #55, #165 ) ) REPRESENTATION_CONTEXT ( 'NONE', 'WORKASPACE' ) );
#85 = MECHANICAL_CONTEXT ( 'NONE', #56, 'mechanical' ) ;
#86 = AXIS2_PLACEMENT_3D ( 'NONE', #126, #21, #192 ) ;
#87 = PERSON_AND_ORGANIZATION ( #96, #182 ) ;
#88 = PERSON_AND_ORGANIZATION ( #96, #182 ) ;
#89 = EDGE_CURVE ( 'NONE', #134, #48, #176, .T. ) ;
#90 = CIRCLE ( 'NONE', #113, 6.349999999999999645 ) ;
#91 = ORIENTED_EDGE ( 'NONE', *, *, #199, .F. ) ;
#92 = DIRECTION ( 'NONE',  ( -1.000000000000000000, 0.000000000000000000, 0.000000000000000000 ) ) ;
#93 = UNCERTAINTY_MEASURE_WITH_UNIT (LENGTH_MEASURE( 1.000000000000000082E-05 ), #175, 'distance_accuracy_value', 'NONE');
#94 = EDGE_LOOP ( 'NONE', ( #62, #16, #29 ) ) ;
#95 = CARTESIAN_POINT ( 'NONE',  ( 0.000000000000000000, 0.000000000000000000, 0.000000000000000000 ) ) ;
#96 = PERSON ( 'UNSPECIFIED', 'UNSPECIFIED', 'UNSPECIFIED', ('UNSPECIFIED'), ('UNSPECIFIED'), ('UNSPECIFIED') ) ;
#97 = CARTESIAN_POINT ( 'NONE',  ( 0.000000000000000000, 0.000000000000000000, 6.000000000000000000 ) ) ;
#98 = CC_DESIGN_PERSON_AND_ORGANIZATION_ASSIGNMENT ( #143, #179, ( #45 ) ) ;
#99 = CARTESIAN_POINT ( 'NONE',  ( -6.350000000000017408, 0.000000000000000000, 6.000000000000005329 ) ) ;
#100 = APPROVAL_STATUS ( 'not_yet_approved' ) ;
#101 = PERSON_AND_ORGANIZATION ( #96, #182 ) ;
#102 = DATE_AND_TIME ( #7, #6 ) ;
#103 = CALENDAR_DATE ( 2021, 25, 2 ) ;
#104 = CIRCLE ( 'NONE', #23, 75.00000000000000000 ) ;
#105 = APPROVAL_DATE_TIME ( #39, #25 ) ;
#106 = EDGE_CURVE ( 'NONE', #48, #134, #60, .T. ) ;
#107 = FACE_OUTER_BOUND ( 'NONE', #46, .T. ) ;
#108 = AXIS2_PLACEMENT_3D ( 'NONE', #110, #152, #137 ) ;
#109 = DIRECTION ( 'NONE',  ( 0.000000000000000000, -1.000000000000000000, -0.000000000000000000 ) ) ;
#110 = CARTESIAN_POINT ( 'NONE',  ( 1.127570259384924611E-14, 0.000000000000000000, 80.73069984952637412 ) ) ;
#111 = CC_DESIGN_DATE_AND_TIME_ASSIGNMENT ( #180, #37, ( #125 ) ) ;
#112 = DIRECTION ( 'NONE',  ( 0.000000000000000000, 0.000000000000000000, 1.000000000000000000 ) ) ;
#113 = AXIS2_PLACEMENT_3D ( 'NONE', #81, #127, #135 ) ;
#114 = CALENDAR_DATE ( 2021, 25, 2 ) ;
#115 = APPROVAL_DATE_TIME ( #10, #151 ) ;
#116 = ADVANCED_FACE ( 'NONE', ( #3 ), #201, .F. ) ;
#117 = LOCAL_TIME ( 12, 32, 4.000000000000000000, #168 ) ;
#118 = APPROVAL_PERSON_ORGANIZATION ( #101, #151, #8 ) ;
#119 = CALENDAR_DATE ( 2021, 25, 2 ) ;
#120 = APPROVAL_PERSON_ORGANIZATION ( #38, #61, #159 ) ;
#121 = ORIENTED_EDGE ( 'NONE', *, *, #27, .T. ) ;
#122 = CC_DESIGN_DATE_AND_TIME_ASSIGNMENT ( #132, #198, ( #167 ) ) ;
#123 = ORIENTED_EDGE ( 'NONE', *, *, #106, .F. ) ;
#124 = DIRECTION ( 'NONE',  ( 1.000000000000000000, 0.000000000000000000, -0.000000000000000000 ) ) ;
#125 = PRODUCT_DEFINITION ( 'UNKNOWN', '', #75, #184 ) ;
#126 = CARTESIAN_POINT ( 'NONE',  ( 1.127570259384924611E-14, 0.000000000000000000, 80.73069984952637412 ) ) ;
#127 = DIRECTION ( 'NONE',  ( 0.000000000000000000, 0.000000000000000000, 1.000000000000000000 ) ) ;
#128 = AXIS2_PLACEMENT_3D ( 'NONE', #66, #22, #18 ) ;
#129 = CARTESIAN_POINT ( 'NONE',  ( 0.000000000000000000, 0.000000000000000000, 0.000000000000000000 ) ) ;
#130 = APPLICATION_PROTOCOL_DEFINITION ( 'international standard', 'config_control_design', 1994, #67 ) ;
#131 = AXIS2_PLACEMENT_3D ( 'NONE', #5, #112, #65 ) ;
#132 = DATE_AND_TIME ( #181, #64 ) ;
#133 = AXIS2_PLACEMENT_3D ( 'NONE', #97, #50, #172 ) ;
#134 = VERTEX_POINT ( 'NONE', #139 ) ;
#135 = DIRECTION ( 'NONE',  ( 1.000000000000000000, 0.000000000000000000, 0.000000000000000000 ) ) ;
#136 = ORIENTED_EDGE ( 'NONE', *, *, #106, .T. ) ;
#137 = DIRECTION ( 'NONE',  ( 0.000000000000000000, 0.000000000000000000, 1.000000000000000000 ) ) ;
#138 = ADVANCED_FACE ( 'NONE', ( #68 ), #141, .F. ) ;
#139 = CARTESIAN_POINT ( 'NONE',  ( 6.350000000000039613, 7.776507174585740481E-16, 6.000000000000005329 ) ) ;
#140 = CARTESIAN_POINT ( 'NONE',  ( 0.000000000000000000, 0.000000000000000000, 6.000000000000000000 ) ) ;
#141 = PLANE ( 'NONE',  #9 ) ;
#142 = LOCAL_TIME ( 12, 32, 4.000000000000000000, #74 ) ;
#143 = PERSON_AND_ORGANIZATION ( #96, #182 ) ;
#144 = PERSON_AND_ORGANIZATION ( #96, #182 ) ;
#145 = EDGE_CURVE ( 'NONE', #185, #150, #57, .T. ) ;
#146 = AXIS2_PLACEMENT_3D ( 'NONE', #140, #188, #92 ) ;
#147 = AXIS2_PLACEMENT_3D ( 'NONE', #149, #177, #4 ) ;
#148 = ORIENTED_EDGE ( 'NONE', *, *, #42, .F. ) ;
#149 = CARTESIAN_POINT ( 'NONE',  ( 1.127570259384924611E-14, 0.000000000000000000, 6.000000000000005329 ) ) ;
#150 = VERTEX_POINT ( 'NONE', #189 ) ;
#151 = APPROVAL ( #161, 'UNSPECIFIED' ) ;
#152 = DIRECTION ( 'NONE',  ( 0.000000000000000000, 1.000000000000000000, -0.000000000000000000 ) ) ;
#153 = CYLINDRICAL_SURFACE ( 'NONE', #146, 6.349999999999999645 ) ;
#154 = CARTESIAN_POINT ( 'NONE',  ( 1.586812809065182048E-14, 0.000000000000000000, 5.730699849526371459 ) ) ;
#155 = MANIFOLD_SOLID_BREP ( 'Cut-Revolve1', #191 ) ;
#156 = EDGE_CURVE ( 'NONE', #48, #150, #69, .T. ) ;
#157 = APPLICATION_PROTOCOL_DEFINITION ( 'international standard', 'config_control_design', 1994, #56 ) ;
#158 = VECTOR ( 'NONE', #174, 1000.000000000000000 ) ;
#159 = APPROVAL_ROLE ( '' ) ;
#160 = ADVANCED_BREP_SHAPE_REPRESENTATION ( '010-1104T6_UVFS_PCV_window', ( #155, #164 ), #84 ) ;
#161 = APPROVAL_STATUS ( 'not_yet_approved' ) ;
#162 = ADVANCED_FACE ( 'NONE', ( #107 ), #80, .T. ) ;
#163 = APPROVAL_DATE_TIME ( #102, #61 ) ;
#164 = AXIS2_PLACEMENT_3D ( 'NONE', #129, #52, #193 ) ;
#165 =( NAMED_UNIT ( * ) SI_UNIT ( $, .STERADIAN. ) SOLID_ANGLE_UNIT ( ) );
#166 = SHAPE_DEFINITION_REPRESENTATION ( #186, #160 ) ;
#167 = SECURITY_CLASSIFICATION ( '', '', #73 ) ;
#168 = COORDINATED_UNIVERSAL_TIME_OFFSET ( 2, 0, .AHEAD. ) ;
#169 = ADVANCED_FACE ( 'NONE', ( #33 ), #153, .T. ) ;
#170 = VERTEX_POINT ( 'NONE', #154 ) ;
#171 = CIRCLE ( 'NONE', #108, 75.00000000000000000 ) ;
#172 = DIRECTION ( 'NONE',  ( -1.000000000000000000, 0.000000000000000000, 0.000000000000000000 ) ) ;
#173 = CARTESIAN_POINT ( 'NONE',  ( 1.127570259384924611E-14, 0.000000000000000000, 80.73069984952637412 ) ) ;
#174 = DIRECTION ( 'NONE',  ( -0.000000000000000000, -0.000000000000000000, -1.000000000000000000 ) ) ;
#175 =( LENGTH_UNIT ( ) NAMED_UNIT ( * ) SI_UNIT ( .MILLI., .METRE. ) );
#176 = CIRCLE ( 'NONE', #147, 6.350000000000028066 ) ;
#177 = DIRECTION ( 'NONE',  ( -0.000000000000000000, -0.000000000000000000, -1.000000000000000000 ) ) ;
#178 = SPHERICAL_SURFACE ( 'NONE', #34, 75.00000000000000000 ) ;
#179 = PERSON_AND_ORGANIZATION_ROLE ( 'design_owner' ) ;
#180 = DATE_AND_TIME ( #114, #28 ) ;
#181 = CALENDAR_DATE ( 2021, 25, 2 ) ;
#182 = ORGANIZATION ( 'UNSPECIFIED', 'UNSPECIFIED', '' ) ;
#183 = APPROVAL_STATUS ( 'not_yet_approved' ) ;
#184 = DESIGN_CONTEXT ( 'detailed design', #67, 'design' ) ;
#185 = VERTEX_POINT ( 'NONE', #78 ) ;
#186 = PRODUCT_DEFINITION_SHAPE ( 'NONE', 'NONE',  #125 ) ;
#187 = ORIENTED_EDGE ( 'NONE', *, *, #145, .T. ) ;
#188 = DIRECTION ( 'NONE',  ( -0.000000000000000000, -0.000000000000000000, -1.000000000000000000 ) ) ;
#189 = CARTESIAN_POINT ( 'NONE',  ( -6.349999999999999645, 0.000000000000000000, 0.000000000000000000 ) ) ;
#190 = PRODUCT_RELATED_PRODUCT_CATEGORY ( 'detail', '', ( #45 ) ) ;
#191 = CLOSED_SHELL ( 'NONE', ( #116, #169, #162, #138, #194 ) ) ;
#192 = DIRECTION ( 'NONE',  ( 1.000000000000000000, 0.000000000000000000, 0.000000000000000000 ) ) ;
#193 = DIRECTION ( 'NONE',  ( 1.000000000000000000, 0.000000000000000000, 0.000000000000000000 ) ) ;
#194 = ADVANCED_FACE ( 'NONE', ( #47 ), #178, .F. ) ;
#195 = CC_DESIGN_PERSON_AND_ORGANIZATION_ASSIGNMENT ( #58, #13, ( #167 ) ) ;
#196 = CC_DESIGN_SECURITY_CLASSIFICATION ( #167, ( #75 ) ) ;
#197 = PERSON_AND_ORGANIZATION ( #96, #182 ) ;
#198 = DATE_TIME_ROLE ( 'classification_date' ) ;
#199 = EDGE_CURVE ( 'NONE', #134, #170, #171, .T. ) ;
#200 = ORIENTED_EDGE ( 'NONE', *, *, #156, .F. ) ;
#201 = SPHERICAL_SURFACE ( 'NONE', #86, 75.00000000000000000 ) ;
ENDSEC;
END-ISO-10303-21;
