ISO-10303-21;
HEADER;
FILE_DESCRIPTION (( 'STEP AP203' ),
    '1' );
FILE_NAME ('010-1104E_UVFS_PCV_window.STEP',
    '2021-02-25T08:29:55',
    ( '' ),
    ( '' ),
    'SwSTEP 2.0',
    'SolidWorks 2019',
    '' );
FILE_SCHEMA (( 'CONFIG_CONTROL_DESIGN' ));
ENDSEC;

DATA;
#1 = CARTESIAN_POINT ( 'NONE',  ( 1.586812809065182048E-14, 0.000000000000000000, 2.730699849526368794 ) ) ;
#2 = LINE ( 'NONE', #146, #149 ) ;
#3 = AXIS2_PLACEMENT_3D ( 'NONE', #39, #163, #51 ) ;
#4 = EDGE_CURVE ( 'NONE', #30, #168, #13, .T. ) ;
#5 = PERSON_AND_ORGANIZATION ( #87, #101 ) ;
#6 = CC_DESIGN_PERSON_AND_ORGANIZATION_ASSIGNMENT ( #155, #122, ( #16 ) ) ;
#7 = APPROVAL_ROLE ( '' ) ;
#8 = DIRECTION ( 'NONE',  ( -0.000000000000000000, -0.000000000000000000, -1.000000000000000000 ) ) ;
#9 = FACE_OUTER_BOUND ( 'NONE', #117, .T. ) ;
#10 = ADVANCED_FACE ( 'NONE', ( #133 ), #77, .F. ) ;
#11 = DIRECTION ( 'NONE',  ( 1.000000000000000000, 0.000000000000000000, 0.000000000000000000 ) ) ;
#12 = CARTESIAN_POINT ( 'NONE',  ( 1.127570259384924611E-14, 0.000000000000000000, 77.73069984952635991 ) ) ;
#13 = LINE ( 'NONE', #104, #105 ) ;
#14 = DIRECTION ( 'NONE',  ( -0.000000000000000000, -0.000000000000000000, -1.000000000000000000 ) ) ;
#15 = CC_DESIGN_PERSON_AND_ORGANIZATION_ASSIGNMENT ( #5, #109, ( #24 ) ) ;
#16 = SECURITY_CLASSIFICATION ( '', '', #31 ) ;
#17 = DIRECTION ( 'NONE',  ( 0.000000000000000000, 0.000000000000000000, 1.000000000000000000 ) ) ;
#18 = PRODUCT_RELATED_PRODUCT_CATEGORY ( 'detail', '', ( #42 ) ) ;
#19 = DATE_TIME_ROLE ( 'creation_date' ) ;
#20 = LOCAL_TIME ( 10, 29, 55.00000000000000000, #46 ) ;
#21 = CALENDAR_DATE ( 2021, 25, 2 ) ;
#22 = CARTESIAN_POINT ( 'NONE',  ( 6.349999999999999645, 7.776507174585692163E-16, 0.000000000000000000 ) ) ;
#23 = ADVANCED_FACE ( 'NONE', ( #59 ), #136, .F. ) ;
#24 = PRODUCT_DEFINITION_FORMATION_WITH_SPECIFIED_SOURCE ( 'ANY', '', #42, .NOT_KNOWN. ) ;
#25 = CARTESIAN_POINT ( 'NONE',  ( 0.000000000000000000, 0.000000000000000000, 3.000000000000000000 ) ) ;
#26 = AXIS2_PLACEMENT_3D ( 'NONE', #194, #181, #11 ) ;
#27 = ORIENTED_EDGE ( 'NONE', *, *, #144, .T. ) ;
#28 = APPROVAL ( #178, 'UNSPECIFIED' ) ;
#29 = ORIENTED_EDGE ( 'NONE', *, *, #151, .F. ) ;
#30 = VERTEX_POINT ( 'NONE', #119 ) ;
#31 = SECURITY_CLASSIFICATION_LEVEL ( 'unclassified' ) ;
#32 = PERSON_AND_ORGANIZATION ( #87, #101 ) ;
#33 = DIRECTION ( 'NONE',  ( 1.000000000000000000, 0.000000000000000000, 0.000000000000000000 ) ) ;
#34 = LOCAL_TIME ( 10, 29, 55.00000000000000000, #35 ) ;
#35 = COORDINATED_UNIVERSAL_TIME_OFFSET ( 2, 0, .AHEAD. ) ;
#36 = CARTESIAN_POINT ( 'NONE',  ( -6.349999999999999645, 0.000000000000000000, 0.000000000000000000 ) ) ;
#37 = EDGE_CURVE ( 'NONE', #30, #41, #94, .T. ) ;
#38 = DIRECTION ( 'NONE',  ( -0.000000000000000000, -0.000000000000000000, -1.000000000000000000 ) ) ;
#39 = CARTESIAN_POINT ( 'NONE',  ( 0.000000000000000000, 0.000000000000000000, 0.000000000000000000 ) ) ;
#40 = AXIS2_PLACEMENT_3D ( 'NONE', #72, #8, #196 ) ;
#41 = VERTEX_POINT ( 'NONE', #1 ) ;
#42 = PRODUCT ( '010-1104E_UVFS_PCV_window', '010-1104E_UVFS_PCV_window', '', ( #92 ) ) ;
#43 = ORIENTED_EDGE ( 'NONE', *, *, #144, .F. ) ;
#44 = ADVANCED_FACE ( 'NONE', ( #185 ), #54, .F. ) ;
#45 = CARTESIAN_POINT ( 'NONE',  ( 0.000000000000000000, 0.000000000000000000, 0.000000000000000000 ) ) ;
#46 = COORDINATED_UNIVERSAL_TIME_OFFSET ( 2, 0, .AHEAD. ) ;
#47 = DATE_AND_TIME ( #90, #20 ) ;
#48 = AXIS2_PLACEMENT_3D ( 'NONE', #148, #134, #201 ) ;
#49 = CALENDAR_DATE ( 2021, 25, 2 ) ;
#50 = APPROVAL_ROLE ( '' ) ;
#51 = DIRECTION ( 'NONE',  ( 1.000000000000000000, 0.000000000000000000, 0.000000000000000000 ) ) ;
#52 = DIRECTION ( 'NONE',  ( -1.000000000000000000, 0.000000000000000000, 0.000000000000000000 ) ) ;
#53 = EDGE_LOOP ( 'NONE', ( #43, #167, #182 ) ) ;
#54 = PLANE ( 'NONE',  #74 ) ;
#55 = AXIS2_PLACEMENT_3D ( 'NONE', #84, #71, #114 ) ;
#56 = ORIENTED_EDGE ( 'NONE', *, *, #76, .T. ) ;
#57 = LOCAL_TIME ( 10, 29, 55.00000000000000000, #107 ) ;
#58 = EDGE_CURVE ( 'NONE', #102, #60, #2, .T. ) ;
#59 = FACE_OUTER_BOUND ( 'NONE', #53, .T. ) ;
#60 = VERTEX_POINT ( 'NONE', #36 ) ;
#61 = COORDINATED_UNIVERSAL_TIME_OFFSET ( 2, 0, .AHEAD. ) ;
#62 = DESIGN_CONTEXT ( 'detailed design', #164, 'design' ) ;
#63 = CC_DESIGN_APPROVAL ( #28, ( #24 ) ) ;
#64 = AXIS2_PLACEMENT_3D ( 'NONE', #132, #171, #198 ) ;
#65 = PERSON_AND_ORGANIZATION ( #87, #101 ) ;
#66 = DATE_AND_TIME ( #49, #57 ) ;
#67 = CIRCLE ( 'NONE', #153, 75.00000000000000000 ) ;
#68 = APPROVAL_PERSON_ORGANIZATION ( #110, #28, #7 ) ;
#69 = DATE_AND_TIME ( #21, #34 ) ;
#70 = DIRECTION ( 'NONE',  ( -0.000000000000000000, -0.000000000000000000, -1.000000000000000000 ) ) ;
#71 = DIRECTION ( 'NONE',  ( -0.000000000000000000, -0.000000000000000000, -1.000000000000000000 ) ) ;
#72 = CARTESIAN_POINT ( 'NONE',  ( 1.127570259384924611E-14, 0.000000000000000000, 3.000000000000002665 ) ) ;
#73 = DIRECTION ( 'NONE',  ( 0.000000000000000000, -1.000000000000000000, -0.000000000000000000 ) ) ;
#74 = AXIS2_PLACEMENT_3D ( 'NONE', #45, #17, #140 ) ;
#75 = ORIENTED_EDGE ( 'NONE', *, *, #151, .T. ) ;
#76 = EDGE_CURVE ( 'NONE', #168, #60, #179, .T. ) ;
#77 = SPHERICAL_SURFACE ( 'NONE', #48, 75.00000000000000000 ) ;
#78 = CIRCLE ( 'NONE', #40, 6.350000000000028066 ) ;
#79 = ADVANCED_FACE ( 'NONE', ( #9 ), #96, .T. ) ;
#80 = COORDINATED_UNIVERSAL_TIME_OFFSET ( 2, 0, .AHEAD. ) ;
#81 = CIRCLE ( 'NONE', #55, 6.350000000000028066 ) ;
#82 = PERSON_AND_ORGANIZATION ( #87, #101 ) ;
#83 = CARTESIAN_POINT ( 'NONE',  ( -6.350000000000017408, 0.000000000000000000, 3.000000000000002665 ) ) ;
#84 = CARTESIAN_POINT ( 'NONE',  ( 1.127570259384924611E-14, 0.000000000000000000, 3.000000000000002665 ) ) ;
#85 = EDGE_LOOP ( 'NONE', ( #197, #27, #152 ) ) ;
#86 = ORIENTED_EDGE ( 'NONE', *, *, #4, .T. ) ;
#87 = PERSON ( 'UNSPECIFIED', 'UNSPECIFIED', 'UNSPECIFIED', ('UNSPECIFIED'), ('UNSPECIFIED'), ('UNSPECIFIED') ) ;
#88 = ORIENTED_EDGE ( 'NONE', *, *, #76, .F. ) ;
#89 = UNCERTAINTY_MEASURE_WITH_UNIT (LENGTH_MEASURE( 1.000000000000000082E-05 ), #125, 'distance_accuracy_value', 'NONE');
#90 = CALENDAR_DATE ( 2021, 25, 2 ) ;
#91 = PERSON_AND_ORGANIZATION ( #87, #101 ) ;
#92 = MECHANICAL_CONTEXT ( 'NONE', #150, 'mechanical' ) ;
#93 = CALENDAR_DATE ( 2021, 25, 2 ) ;
#94 = CIRCLE ( 'NONE', #64, 75.00000000000000000 ) ;
#95 = CARTESIAN_POINT ( 'NONE',  ( 0.000000000000000000, 0.000000000000000000, 0.000000000000000000 ) ) ;
#96 = CYLINDRICAL_SURFACE ( 'NONE', #142, 6.349999999999999645 ) ;
#97 = ADVANCED_FACE ( 'NONE', ( #129 ), #145, .T. ) ;
#98 =( NAMED_UNIT ( * ) PLANE_ANGLE_UNIT ( ) SI_UNIT ( $, .RADIAN. ) );
#99 =( GEOMETRIC_REPRESENTATION_CONTEXT ( 3 ) GLOBAL_UNCERTAINTY_ASSIGNED_CONTEXT ( ( #89 ) ) GLOBAL_UNIT_ASSIGNED_CONTEXT ( ( #125, #98, #126 ) ) REPRESENTATION_CONTEXT ( 'NONE', 'WORKASPACE' ) );
#100 = EDGE_LOOP ( 'NONE', ( #29, #88 ) ) ;
#101 = ORGANIZATION ( 'UNSPECIFIED', 'UNSPECIFIED', '' ) ;
#102 = VERTEX_POINT ( 'NONE', #83 ) ;
#103 = DIRECTION ( 'NONE',  ( 1.000000000000000000, 0.000000000000000000, 0.000000000000000000 ) ) ;
#104 = CARTESIAN_POINT ( 'NONE',  ( 6.349999999999999645, 7.776507174585692163E-16, 3.000000000000000000 ) ) ;
#105 = VECTOR ( 'NONE', #14, 1000.000000000000000 ) ;
#106 = PRODUCT_DEFINITION ( 'UNKNOWN', '', #24, #62 ) ;
#107 = COORDINATED_UNIVERSAL_TIME_OFFSET ( 2, 0, .AHEAD. ) ;
#108 = APPROVAL ( #156, 'UNSPECIFIED' ) ;
#109 = PERSON_AND_ORGANIZATION_ROLE ( 'design_supplier' ) ;
#110 = PERSON_AND_ORGANIZATION ( #87, #101 ) ;
#111 = CARTESIAN_POINT ( 'NONE',  ( 0.000000000000000000, 0.000000000000000000, 3.000000000000000000 ) ) ;
#112 = DIRECTION ( 'NONE',  ( -1.000000000000000000, 0.000000000000000000, 0.000000000000000000 ) ) ;
#113 = EDGE_CURVE ( 'NONE', #102, #30, #81, .T. ) ;
#114 = DIRECTION ( 'NONE',  ( 1.000000000000000000, 0.000000000000000000, 0.000000000000000000 ) ) ;
#115 = DIRECTION ( 'NONE',  ( -0.000000000000000000, -0.000000000000000000, -1.000000000000000000 ) ) ;
#116 = ORIENTED_EDGE ( 'NONE', *, *, #4, .F. ) ;
#117 = EDGE_LOOP ( 'NONE', ( #166, #86, #56, #184 ) ) ;
#118 = EDGE_LOOP ( 'NONE', ( #116, #183, #131, #75 ) ) ;
#119 = CARTESIAN_POINT ( 'NONE',  ( 6.350000000000039613, 7.776507174585740481E-16, 3.000000000000002665 ) ) ;
#120 = SHAPE_DEFINITION_REPRESENTATION ( #147, #162 ) ;
#121 = LOCAL_TIME ( 10, 29, 55.00000000000000000, #80 ) ;
#122 = PERSON_AND_ORGANIZATION_ROLE ( 'classification_officer' ) ;
#123 = APPROVAL_PERSON_ORGANIZATION ( #173, #108, #138 ) ;
#124 = AXIS2_PLACEMENT_3D ( 'NONE', #95, #176, #33 ) ;
#125 =( LENGTH_UNIT ( ) NAMED_UNIT ( * ) SI_UNIT ( .MILLI., .METRE. ) );
#126 =( NAMED_UNIT ( * ) SI_UNIT ( $, .STERADIAN. ) SOLID_ANGLE_UNIT ( ) );
#127 = CC_DESIGN_DATE_AND_TIME_ASSIGNMENT ( #159, #19, ( #106 ) ) ;
#128 = DIRECTION ( 'NONE',  ( 1.224646799147353207E-16, -1.000000000000000000, 0.000000000000000000 ) ) ;
#129 = FACE_OUTER_BOUND ( 'NONE', #118, .T. ) ;
#130 = CC_DESIGN_DATE_AND_TIME_ASSIGNMENT ( #186, #154, ( #16 ) ) ;
#131 = ORIENTED_EDGE ( 'NONE', *, *, #58, .T. ) ;
#132 = CARTESIAN_POINT ( 'NONE',  ( 1.127570259384924611E-14, 0.000000000000000000, 77.73069984952635991 ) ) ;
#133 = FACE_OUTER_BOUND ( 'NONE', #85, .T. ) ;
#134 = DIRECTION ( 'NONE',  ( 0.000000000000000000, -1.000000000000000000, -0.000000000000000000 ) ) ;
#135 = LOCAL_TIME ( 10, 29, 55.00000000000000000, #61 ) ;
#136 = SPHERICAL_SURFACE ( 'NONE', #161, 75.00000000000000000 ) ;
#137 = AXIS2_PLACEMENT_3D ( 'NONE', #111, #70, #112 ) ;
#138 = APPROVAL_ROLE ( '' ) ;
#139 = CALENDAR_DATE ( 2021, 25, 2 ) ;
#140 = DIRECTION ( 'NONE',  ( 1.000000000000000000, 0.000000000000000000, -0.000000000000000000 ) ) ;
#141 = APPROVAL_DATE_TIME ( #69, #28 ) ;
#142 = AXIS2_PLACEMENT_3D ( 'NONE', #25, #38, #52 ) ;
#143 = PERSON_AND_ORGANIZATION_ROLE ( 'design_owner' ) ;
#144 = EDGE_CURVE ( 'NONE', #102, #41, #67, .T. ) ;
#145 = CYLINDRICAL_SURFACE ( 'NONE', #137, 6.349999999999999645 ) ;
#146 = CARTESIAN_POINT ( 'NONE',  ( -6.349999999999999645, 0.000000000000000000, 3.000000000000000000 ) ) ;
#147 = PRODUCT_DEFINITION_SHAPE ( 'NONE', 'NONE',  #106 ) ;
#148 = CARTESIAN_POINT ( 'NONE',  ( 1.127570259384924611E-14, 0.000000000000000000, 77.73069984952635991 ) ) ;
#149 = VECTOR ( 'NONE', #115, 1000.000000000000000 ) ;
#150 = APPLICATION_CONTEXT ( 'configuration controlled 3d designs of mechanical parts and assemblies' ) ;
#151 = EDGE_CURVE ( 'NONE', #60, #168, #174, .T. ) ;
#152 = ORIENTED_EDGE ( 'NONE', *, *, #37, .F. ) ;
#153 = AXIS2_PLACEMENT_3D ( 'NONE', #180, #128, #165 ) ;
#154 = DATE_TIME_ROLE ( 'classification_date' ) ;
#155 = PERSON_AND_ORGANIZATION ( #87, #101 ) ;
#156 = APPROVAL_STATUS ( 'not_yet_approved' ) ;
#157 = PERSON_AND_ORGANIZATION_ROLE ( 'creator' ) ;
#158 = PERSON_AND_ORGANIZATION_ROLE ( 'creator' ) ;
#159 = DATE_AND_TIME ( #93, #121 ) ;
#160 = CC_DESIGN_APPROVAL ( #108, ( #16 ) ) ;
#161 = AXIS2_PLACEMENT_3D ( 'NONE', #12, #73, #103 ) ;
#162 = ADVANCED_BREP_SHAPE_REPRESENTATION ( '010-1104E_UVFS_PCV_window', ( #170, #124 ), #99 ) ;
#163 = DIRECTION ( 'NONE',  ( 0.000000000000000000, 0.000000000000000000, 1.000000000000000000 ) ) ;
#164 = APPLICATION_CONTEXT ( 'configuration controlled 3d designs of mechanical parts and assemblies' ) ;
#165 = DIRECTION ( 'NONE',  ( 1.000000000000000000, 1.224646799147353207E-16, 0.000000000000000000 ) ) ;
#166 = ORIENTED_EDGE ( 'NONE', *, *, #113, .T. ) ;
#167 = ORIENTED_EDGE ( 'NONE', *, *, #188, .F. ) ;
#168 = VERTEX_POINT ( 'NONE', #22 ) ;
#169 = CC_DESIGN_PERSON_AND_ORGANIZATION_ASSIGNMENT ( #82, #158, ( #106 ) ) ;
#170 = MANIFOLD_SOLID_BREP ( 'Cut-Revolve1', #199 ) ;
#171 = DIRECTION ( 'NONE',  ( 0.000000000000000000, 1.000000000000000000, -0.000000000000000000 ) ) ;
#172 = APPROVAL_DATE_TIME ( #47, #108 ) ;
#173 = PERSON_AND_ORGANIZATION ( #87, #101 ) ;
#174 = CIRCLE ( 'NONE', #26, 6.349999999999999645 ) ;
#175 = APPROVAL ( #191, 'UNSPECIFIED' ) ;
#176 = DIRECTION ( 'NONE',  ( 0.000000000000000000, 0.000000000000000000, 1.000000000000000000 ) ) ;
#177 = APPROVAL_DATE_TIME ( #66, #175 ) ;
#178 = APPROVAL_STATUS ( 'not_yet_approved' ) ;
#179 = CIRCLE ( 'NONE', #3, 6.349999999999999645 ) ;
#180 = CARTESIAN_POINT ( 'NONE',  ( 1.127570259384924611E-14, 0.000000000000000000, 77.73069984952635991 ) ) ;
#181 = DIRECTION ( 'NONE',  ( 0.000000000000000000, 0.000000000000000000, 1.000000000000000000 ) ) ;
#182 = ORIENTED_EDGE ( 'NONE', *, *, #37, .T. ) ;
#183 = ORIENTED_EDGE ( 'NONE', *, *, #188, .T. ) ;
#184 = ORIENTED_EDGE ( 'NONE', *, *, #58, .F. ) ;
#185 = FACE_OUTER_BOUND ( 'NONE', #100, .T. ) ;
#186 = DATE_AND_TIME ( #139, #135 ) ;
#187 = CC_DESIGN_SECURITY_CLASSIFICATION ( #16, ( #24 ) ) ;
#188 = EDGE_CURVE ( 'NONE', #30, #102, #78, .T. ) ;
#189 = APPROVAL_PERSON_ORGANIZATION ( #32, #175, #50 ) ;
#190 = APPLICATION_PROTOCOL_DEFINITION ( 'international standard', 'config_control_design', 1994, #150 ) ;
#191 = APPROVAL_STATUS ( 'not_yet_approved' ) ;
#192 = APPLICATION_PROTOCOL_DEFINITION ( 'international standard', 'config_control_design', 1994, #164 ) ;
#193 = CC_DESIGN_PERSON_AND_ORGANIZATION_ASSIGNMENT ( #91, #157, ( #24 ) ) ;
#194 = CARTESIAN_POINT ( 'NONE',  ( 0.000000000000000000, 0.000000000000000000, 0.000000000000000000 ) ) ;
#195 = CC_DESIGN_PERSON_AND_ORGANIZATION_ASSIGNMENT ( #65, #143, ( #42 ) ) ;
#196 = DIRECTION ( 'NONE',  ( 1.000000000000000000, 0.000000000000000000, 0.000000000000000000 ) ) ;
#197 = ORIENTED_EDGE ( 'NONE', *, *, #113, .F. ) ;
#198 = DIRECTION ( 'NONE',  ( 0.000000000000000000, 0.000000000000000000, 1.000000000000000000 ) ) ;
#199 = CLOSED_SHELL ( 'NONE', ( #10, #79, #97, #44, #23 ) ) ;
#200 = CC_DESIGN_APPROVAL ( #175, ( #106 ) ) ;
#201 = DIRECTION ( 'NONE',  ( 1.000000000000000000, 0.000000000000000000, 0.000000000000000000 ) ) ;
ENDSEC;
END-ISO-10303-21;
