ISO-10303-21;
HEADER;
FILE_DESCRIPTION (( 'STEP AP203' ),
    '1' );
FILE_NAME ('010-1103T6_UVFS_PCV_window.STEP',
    '2021-02-25T10:31:38',
    ( '' ),
    ( '' ),
    'SwSTEP 2.0',
    'SolidWorks 2019',
    '' );
FILE_SCHEMA (( 'CONFIG_CONTROL_DESIGN' ));
ENDSEC;

DATA;
#1 = CC_DESIGN_APPROVAL ( #160, ( #96 ) ) ;
#2 = CC_DESIGN_PERSON_AND_ORGANIZATION_ASSIGNMENT ( #190, #134, ( #34 ) ) ;
#3 = DIRECTION ( 'NONE',  ( 1.000000000000000000, 0.000000000000000000, 0.000000000000000000 ) ) ;
#4 = CIRCLE ( 'NONE', #182, 50.00000000000000000 ) ;
#5 = CARTESIAN_POINT ( 'NONE',  ( 7.806255641895631925E-15, 0.000000000000000000, 5.999999999999998224 ) ) ;
#6 =( NAMED_UNIT ( * ) SI_UNIT ( $, .STERADIAN. ) SOLID_ANGLE_UNIT ( ) );
#7 = APPROVAL_PERSON_ORGANIZATION ( #189, #66, #33 ) ;
#8 = APPROVAL_STATUS ( 'not_yet_approved' ) ;
#9 = APPROVAL_DATE_TIME ( #175, #66 ) ;
#10 = APPROVAL_DATE_TIME ( #37, #160 ) ;
#11 = CARTESIAN_POINT ( 'NONE',  ( -6.349999999999999645, 0.000000000000000000, 0.000000000000000000 ) ) ;
#12 = ORIENTED_EDGE ( 'NONE', *, *, #54, .F. ) ;
#13 = EDGE_LOOP ( 'NONE', ( #107, #181, #198 ) ) ;
#14 = CYLINDRICAL_SURFACE ( 'NONE', #43, 6.349999999999999645 ) ;
#15 = DIRECTION ( 'NONE',  ( -0.000000000000000000, -0.000000000000000000, -1.000000000000000000 ) ) ;
#16 = DIRECTION ( 'NONE',  ( 0.000000000000000000, 0.000000000000000000, 1.000000000000000000 ) ) ;
#17 = CARTESIAN_POINT ( 'NONE',  ( -6.349999999999985434, 0.000000000000000000, 5.999999999999998224 ) ) ;
#18 = AXIS2_PLACEMENT_3D ( 'NONE', #91, #129, #59 ) ;
#19 = PERSON_AND_ORGANIZATION_ROLE ( 'classification_officer' ) ;
#20 = DATE_AND_TIME ( #194, #92 ) ;
#21 = APPROVAL_STATUS ( 'not_yet_approved' ) ;
#22 = CARTESIAN_POINT ( 'NONE',  ( 0.000000000000000000, 0.000000000000000000, 0.000000000000000000 ) ) ;
#23 = MANIFOLD_SOLID_BREP ( 'Cut-Revolve1', #88 ) ;
#24 = CC_DESIGN_PERSON_AND_ORGANIZATION_ASSIGNMENT ( #133, #36, ( #82 ) ) ;
#25 = AXIS2_PLACEMENT_3D ( 'NONE', #48, #16, #141 ) ;
#26 = ORIENTED_EDGE ( 'NONE', *, *, #144, .F. ) ;
#27 = DIRECTION ( 'NONE',  ( 1.000000000000000000, 0.000000000000000000, 0.000000000000000000 ) ) ;
#28 = EDGE_CURVE ( 'NONE', #87, #71, #40, .T. ) ;
#29 = CARTESIAN_POINT ( 'NONE',  ( 7.806255641895631925E-15, 0.000000000000000000, 55.59513585020208382 ) ) ;
#30 = PERSON ( 'UNSPECIFIED', 'UNSPECIFIED', 'UNSPECIFIED', ('UNSPECIFIED'), ('UNSPECIFIED'), ('UNSPECIFIED') ) ;
#31 = FACE_OUTER_BOUND ( 'NONE', #57, .T. ) ;
#32 = CARTESIAN_POINT ( 'NONE',  ( 0.000000000000000000, 0.000000000000000000, 6.000000000000000000 ) ) ;
#33 = APPROVAL_ROLE ( '' ) ;
#34 = PRODUCT_DEFINITION_FORMATION_WITH_SPECIFIED_SOURCE ( 'ANY', '', #82, .NOT_KNOWN. ) ;
#35 = COORDINATED_UNIVERSAL_TIME_OFFSET ( 2, 0, .AHEAD. ) ;
#36 = PERSON_AND_ORGANIZATION_ROLE ( 'design_owner' ) ;
#37 = DATE_AND_TIME ( #51, #137 ) ;
#38 = ORIENTED_EDGE ( 'NONE', *, *, #127, .T. ) ;
#39 = DIRECTION ( 'NONE',  ( 0.000000000000000000, 1.000000000000000000, -0.000000000000000000 ) ) ;
#40 = CIRCLE ( 'NONE', #60, 6.349999999999999645 ) ;
#41 = ORIENTED_EDGE ( 'NONE', *, *, #197, .T. ) ;
#42 = CARTESIAN_POINT ( 'NONE',  ( -6.349999999999999645, 0.000000000000000000, 6.000000000000000000 ) ) ;
#43 = AXIS2_PLACEMENT_3D ( 'NONE', #32, #93, #158 ) ;
#44 = CARTESIAN_POINT ( 'NONE',  ( 7.806255641895631925E-15, 0.000000000000000000, 55.59513585020208382 ) ) ;
#45 = CARTESIAN_POINT ( 'NONE',  ( 0.000000000000000000, 0.000000000000000000, 0.000000000000000000 ) ) ;
#46 = FACE_OUTER_BOUND ( 'NONE', #124, .T. ) ;
#47 = CARTESIAN_POINT ( 'NONE',  ( 7.806255641895631925E-15, 0.000000000000000000, 55.59513585020208382 ) ) ;
#48 = CARTESIAN_POINT ( 'NONE',  ( 0.000000000000000000, 0.000000000000000000, 0.000000000000000000 ) ) ;
#49 = CC_DESIGN_DATE_AND_TIME_ASSIGNMENT ( #117, #81, ( #96 ) ) ;
#50 = DATE_TIME_ROLE ( 'classification_date' ) ;
#51 = CALENDAR_DATE ( 2021, 25, 2 ) ;
#52 = AXIS2_PLACEMENT_3D ( 'NONE', #62, #145, #128 ) ;
#53 = APPROVAL_STATUS ( 'not_yet_approved' ) ;
#54 = EDGE_CURVE ( 'NONE', #201, #71, #125, .T. ) ;
#55 = LOCAL_TIME ( 12, 31, 38.00000000000000000, #163 ) ;
#56 = VERTEX_POINT ( 'NONE', #154 ) ;
#57 = EDGE_LOOP ( 'NONE', ( #122, #121, #199, #84 ) ) ;
#58 = DIRECTION ( 'NONE',  ( 1.224646799147353207E-16, -1.000000000000000000, 0.000000000000000000 ) ) ;
#59 = DIRECTION ( 'NONE',  ( -1.000000000000000000, 0.000000000000000000, 0.000000000000000000 ) ) ;
#60 = AXIS2_PLACEMENT_3D ( 'NONE', #22, #180, #27 ) ;
#61 = FACE_OUTER_BOUND ( 'NONE', #139, .T. ) ;
#62 = CARTESIAN_POINT ( 'NONE',  ( 0.000000000000000000, 0.000000000000000000, 0.000000000000000000 ) ) ;
#63 = DIRECTION ( 'NONE',  ( 0.000000000000000000, -1.000000000000000000, -0.000000000000000000 ) ) ;
#64 = DIRECTION ( 'NONE',  ( 1.000000000000000000, 0.000000000000000000, 0.000000000000000000 ) ) ;
#65 = COORDINATED_UNIVERSAL_TIME_OFFSET ( 2, 0, .AHEAD. ) ;
#66 = APPROVAL ( #53, 'UNSPECIFIED' ) ;
#67 = CALENDAR_DATE ( 2021, 25, 2 ) ;
#68 = VECTOR ( 'NONE', #146, 1000.000000000000000 ) ;
#69 = APPROVAL ( #21, 'UNSPECIFIED' ) ;
#70 = CARTESIAN_POINT ( 'NONE',  ( 6.349999999999999645, 7.776507174585692163E-16, 0.000000000000000000 ) ) ;
#71 = VERTEX_POINT ( 'NONE', #11 ) ;
#72 = SPHERICAL_SURFACE ( 'NONE', #94, 50.00000000000000000 ) ;
#73 = SECURITY_CLASSIFICATION ( '', '', #161 ) ;
#74 = FACE_OUTER_BOUND ( 'NONE', #13, .T. ) ;
#75 = CIRCLE ( 'NONE', #195, 6.349999999999993427 ) ;
#76 =( NAMED_UNIT ( * ) PLANE_ANGLE_UNIT ( ) SI_UNIT ( $, .RADIAN. ) );
#77 = CARTESIAN_POINT ( 'NONE',  ( 6.349999999999999645, 7.776507174585692163E-16, 6.000000000000000000 ) ) ;
#78 = ORGANIZATION ( 'UNSPECIFIED', 'UNSPECIFIED', '' ) ;
#79 = PERSON_AND_ORGANIZATION_ROLE ( 'creator' ) ;
#80 = APPROVAL_ROLE ( '' ) ;
#81 = DATE_TIME_ROLE ( 'creation_date' ) ;
#82 = PRODUCT ( '010-1103T6_UVFS_PCV_window', '010-1103T6_UVFS_PCV_window', '', ( #147 ) ) ;
#83 = APPLICATION_CONTEXT ( 'configuration controlled 3d designs of mechanical parts and assemblies' ) ;
#84 = ORIENTED_EDGE ( 'NONE', *, *, #166, .T. ) ;
#85 = CC_DESIGN_PERSON_AND_ORGANIZATION_ASSIGNMENT ( #97, #79, ( #96 ) ) ;
#86 = EDGE_LOOP ( 'NONE', ( #26, #153, #140 ) ) ;
#87 = VERTEX_POINT ( 'NONE', #70 ) ;
#88 = CLOSED_SHELL ( 'NONE', ( #184, #200, #123, #172, #105 ) ) ;
#89 = LINE ( 'NONE', #77, #68 ) ;
#90 = APPLICATION_PROTOCOL_DEFINITION ( 'international standard', 'config_control_design', 1994, #170 ) ;
#91 = CARTESIAN_POINT ( 'NONE',  ( 0.000000000000000000, 0.000000000000000000, 6.000000000000000000 ) ) ;
#92 = LOCAL_TIME ( 12, 31, 38.00000000000000000, #35 ) ;
#93 = DIRECTION ( 'NONE',  ( -0.000000000000000000, -0.000000000000000000, -1.000000000000000000 ) ) ;
#94 = AXIS2_PLACEMENT_3D ( 'NONE', #47, #63, #169 ) ;
#95 = DIRECTION ( 'NONE',  ( 1.000000000000000000, 0.000000000000000000, 0.000000000000000000 ) ) ;
#96 = PRODUCT_DEFINITION ( 'UNKNOWN', '', #34, #150 ) ;
#97 = PERSON_AND_ORGANIZATION ( #30, #78 ) ;
#98 = PERSON_AND_ORGANIZATION_ROLE ( 'design_supplier' ) ;
#99 = APPLICATION_PROTOCOL_DEFINITION ( 'international standard', 'config_control_design', 1994, #83 ) ;
#100 = PERSON_AND_ORGANIZATION ( #30, #78 ) ;
#101 = EDGE_CURVE ( 'NONE', #179, #56, #106, .T. ) ;
#102 = ORIENTED_EDGE ( 'NONE', *, *, #28, .T. ) ;
#103 = CC_DESIGN_SECURITY_CLASSIFICATION ( #73, ( #34 ) ) ;
#104 = ORIENTED_EDGE ( 'NONE', *, *, #166, .F. ) ;
#105 = ADVANCED_FACE ( 'NONE', ( #109 ), #72, .F. ) ;
#106 = CIRCLE ( 'NONE', #159, 49.99999999999999289 ) ;
#107 = ORIENTED_EDGE ( 'NONE', *, *, #197, .F. ) ;
#108 = CC_DESIGN_PERSON_AND_ORGANIZATION_ASSIGNMENT ( #100, #19, ( #73 ) ) ;
#109 = FACE_OUTER_BOUND ( 'NONE', #86, .T. ) ;
#110 = DIRECTION ( 'NONE',  ( 1.000000000000000000, 1.224646799147353207E-16, 0.000000000000000000 ) ) ;
#111 = CYLINDRICAL_SURFACE ( 'NONE', #18, 6.349999999999999645 ) ;
#112 = DIRECTION ( 'NONE',  ( 0.000000000000000000, 0.000000000000000000, 1.000000000000000000 ) ) ;
#113 = CALENDAR_DATE ( 2021, 25, 2 ) ;
#114 = LOCAL_TIME ( 12, 31, 38.00000000000000000, #173 ) ;
#115 = ADVANCED_BREP_SHAPE_REPRESENTATION ( '010-1103T6_UVFS_PCV_window', ( #23, #178 ), #192 ) ;
#116 = CIRCLE ( 'NONE', #25, 6.349999999999999645 ) ;
#117 = DATE_AND_TIME ( #162, #55 ) ;
#118 = PRODUCT_RELATED_PRODUCT_CATEGORY ( 'detail', '', ( #82 ) ) ;
#119 = PERSON_AND_ORGANIZATION ( #30, #78 ) ;
#120 = CC_DESIGN_APPROVAL ( #66, ( #34 ) ) ;
#121 = ORIENTED_EDGE ( 'NONE', *, *, #148, .T. ) ;
#122 = ORIENTED_EDGE ( 'NONE', *, *, #127, .F. ) ;
#123 = ADVANCED_FACE ( 'NONE', ( #31 ), #111, .T. ) ;
#124 = EDGE_LOOP ( 'NONE', ( #104, #183 ) ) ;
#125 = LINE ( 'NONE', #42, #135 ) ;
#126 = PLANE ( 'NONE',  #52 ) ;
#127 = EDGE_CURVE ( 'NONE', #179, #87, #89, .T. ) ;
#128 = DIRECTION ( 'NONE',  ( 1.000000000000000000, 0.000000000000000000, -0.000000000000000000 ) ) ;
#129 = DIRECTION ( 'NONE',  ( -0.000000000000000000, -0.000000000000000000, -1.000000000000000000 ) ) ;
#130 = CC_DESIGN_DATE_AND_TIME_ASSIGNMENT ( #20, #50, ( #73 ) ) ;
#131 = CARTESIAN_POINT ( 'NONE',  ( 6.350000000000001421, 7.776507174585694135E-16, 5.999999999999998224 ) ) ;
#132 = DATE_AND_TIME ( #67, #152 ) ;
#133 = PERSON_AND_ORGANIZATION ( #30, #78 ) ;
#134 = PERSON_AND_ORGANIZATION_ROLE ( 'creator' ) ;
#135 = VECTOR ( 'NONE', #164, 1000.000000000000000 ) ;
#136 = APPROVAL_DATE_TIME ( #132, #69 ) ;
#137 = LOCAL_TIME ( 12, 31, 38.00000000000000000, #65 ) ;
#138 = CARTESIAN_POINT ( 'NONE',  ( 7.806255641895631925E-15, 0.000000000000000000, 55.59513585020208382 ) ) ;
#139 = EDGE_LOOP ( 'NONE', ( #41, #38, #102, #12 ) ) ;
#140 = ORIENTED_EDGE ( 'NONE', *, *, #101, .T. ) ;
#141 = DIRECTION ( 'NONE',  ( 1.000000000000000000, 0.000000000000000000, 0.000000000000000000 ) ) ;
#142 = SPHERICAL_SURFACE ( 'NONE', #165, 50.00000000000000000 ) ;
#143 = CIRCLE ( 'NONE', #176, 6.349999999999993427 ) ;
#144 = EDGE_CURVE ( 'NONE', #201, #56, #4, .T. ) ;
#145 = DIRECTION ( 'NONE',  ( 0.000000000000000000, 0.000000000000000000, 1.000000000000000000 ) ) ;
#146 = DIRECTION ( 'NONE',  ( -0.000000000000000000, -0.000000000000000000, -1.000000000000000000 ) ) ;
#147 = MECHANICAL_CONTEXT ( 'NONE', #170, 'mechanical' ) ;
#148 = EDGE_CURVE ( 'NONE', #179, #201, #143, .T. ) ;
#149 = APPROVAL_ROLE ( '' ) ;
#150 = DESIGN_CONTEXT ( 'detailed design', #83, 'design' ) ;
#151 = COORDINATED_UNIVERSAL_TIME_OFFSET ( 2, 0, .AHEAD. ) ;
#152 = LOCAL_TIME ( 12, 31, 38.00000000000000000, #151 ) ;
#153 = ORIENTED_EDGE ( 'NONE', *, *, #148, .F. ) ;
#154 = CARTESIAN_POINT ( 'NONE',  ( 1.086787263976401378E-14, 0.000000000000000000, 5.595135850202083816 ) ) ;
#155 = APPROVAL_PERSON_ORGANIZATION ( #171, #69, #149 ) ;
#156 = DIRECTION ( 'NONE',  ( -0.000000000000000000, -0.000000000000000000, -1.000000000000000000 ) ) ;
#157 = DIRECTION ( 'NONE',  ( 1.000000000000000000, 0.000000000000000000, 0.000000000000000000 ) ) ;
#158 = DIRECTION ( 'NONE',  ( -1.000000000000000000, 0.000000000000000000, 0.000000000000000000 ) ) ;
#159 = AXIS2_PLACEMENT_3D ( 'NONE', #138, #39, #188 ) ;
#160 = APPROVAL ( #8, 'UNSPECIFIED' ) ;
#161 = SECURITY_CLASSIFICATION_LEVEL ( 'unclassified' ) ;
#162 = CALENDAR_DATE ( 2021, 25, 2 ) ;
#163 = COORDINATED_UNIVERSAL_TIME_OFFSET ( 2, 0, .AHEAD. ) ;
#164 = DIRECTION ( 'NONE',  ( -0.000000000000000000, -0.000000000000000000, -1.000000000000000000 ) ) ;
#165 = AXIS2_PLACEMENT_3D ( 'NONE', #29, #167, #95 ) ;
#166 = EDGE_CURVE ( 'NONE', #71, #87, #116, .T. ) ;
#167 = DIRECTION ( 'NONE',  ( 0.000000000000000000, -1.000000000000000000, -0.000000000000000000 ) ) ;
#168 = CC_DESIGN_APPROVAL ( #69, ( #73 ) ) ;
#169 = DIRECTION ( 'NONE',  ( 1.000000000000000000, 0.000000000000000000, 0.000000000000000000 ) ) ;
#170 = APPLICATION_CONTEXT ( 'configuration controlled 3d designs of mechanical parts and assemblies' ) ;
#171 = PERSON_AND_ORGANIZATION ( #30, #78 ) ;
#172 = ADVANCED_FACE ( 'NONE', ( #46 ), #126, .F. ) ;
#173 = COORDINATED_UNIVERSAL_TIME_OFFSET ( 2, 0, .AHEAD. ) ;
#174 = APPROVAL_PERSON_ORGANIZATION ( #196, #160, #80 ) ;
#175 = DATE_AND_TIME ( #113, #114 ) ;
#176 = AXIS2_PLACEMENT_3D ( 'NONE', #187, #156, #157 ) ;
#177 = SHAPE_DEFINITION_REPRESENTATION ( #191, #115 ) ;
#178 = AXIS2_PLACEMENT_3D ( 'NONE', #45, #112, #64 ) ;
#179 = VERTEX_POINT ( 'NONE', #131 ) ;
#180 = DIRECTION ( 'NONE',  ( 0.000000000000000000, 0.000000000000000000, 1.000000000000000000 ) ) ;
#181 = ORIENTED_EDGE ( 'NONE', *, *, #144, .T. ) ;
#182 = AXIS2_PLACEMENT_3D ( 'NONE', #44, #58, #110 ) ;
#183 = ORIENTED_EDGE ( 'NONE', *, *, #28, .F. ) ;
#184 = ADVANCED_FACE ( 'NONE', ( #74 ), #142, .F. ) ;
#185 = UNCERTAINTY_MEASURE_WITH_UNIT (LENGTH_MEASURE( 1.000000000000000082E-05 ), #186, 'distance_accuracy_value', 'NONE');
#186 =( LENGTH_UNIT ( ) NAMED_UNIT ( * ) SI_UNIT ( .MILLI., .METRE. ) );
#187 = CARTESIAN_POINT ( 'NONE',  ( 7.806255641895631925E-15, 0.000000000000000000, 5.999999999999998224 ) ) ;
#188 = DIRECTION ( 'NONE',  ( 0.000000000000000000, 0.000000000000000000, 1.000000000000000000 ) ) ;
#189 = PERSON_AND_ORGANIZATION ( #30, #78 ) ;
#190 = PERSON_AND_ORGANIZATION ( #30, #78 ) ;
#191 = PRODUCT_DEFINITION_SHAPE ( 'NONE', 'NONE',  #96 ) ;
#192 =( GEOMETRIC_REPRESENTATION_CONTEXT ( 3 ) GLOBAL_UNCERTAINTY_ASSIGNED_CONTEXT ( ( #185 ) ) GLOBAL_UNIT_ASSIGNED_CONTEXT ( ( #186, #76, #6 ) ) REPRESENTATION_CONTEXT ( 'NONE', 'WORKASPACE' ) );
#193 = CC_DESIGN_PERSON_AND_ORGANIZATION_ASSIGNMENT ( #119, #98, ( #34 ) ) ;
#194 = CALENDAR_DATE ( 2021, 25, 2 ) ;
#195 = AXIS2_PLACEMENT_3D ( 'NONE', #5, #15, #3 ) ;
#196 = PERSON_AND_ORGANIZATION ( #30, #78 ) ;
#197 = EDGE_CURVE ( 'NONE', #201, #179, #75, .T. ) ;
#198 = ORIENTED_EDGE ( 'NONE', *, *, #101, .F. ) ;
#199 = ORIENTED_EDGE ( 'NONE', *, *, #54, .T. ) ;
#200 = ADVANCED_FACE ( 'NONE', ( #61 ), #14, .T. ) ;
#201 = VERTEX_POINT ( 'NONE', #17 ) ;
ENDSEC;
END-ISO-10303-21;
