ISO-10303-21;
HEADER;
FILE_DESCRIPTION (( 'STEP AP203' ),
    '1' );
FILE_NAME ('010-1103E_UVFS_PCV_window.STEP',
    '2021-02-25T08:29:27',
    ( '' ),
    ( '' ),
    'SwSTEP 2.0',
    'SolidWorks 2019',
    '' );
FILE_SCHEMA (( 'CONFIG_CONTROL_DESIGN' ));
ENDSEC;

DATA;
#1 = CC_DESIGN_APPROVAL ( #139, ( #183 ) ) ;
#2 = CARTESIAN_POINT ( 'NONE',  ( 1.086787263976401536E-14, 0.000000000000000000, 2.595135850202080707 ) ) ;
#3 = VERTEX_POINT ( 'NONE', #105 ) ;
#4 = ORIENTED_EDGE ( 'NONE', *, *, #171, .F. ) ;
#5 = COORDINATED_UNIVERSAL_TIME_OFFSET ( 2, 0, .AHEAD. ) ;
#6 = AXIS2_PLACEMENT_3D ( 'NONE', #35, #68, #141 ) ;
#7 = PERSON_AND_ORGANIZATION_ROLE ( 'design_owner' ) ;
#8 = DATE_AND_TIME ( #30, #19 ) ;
#9 = DIRECTION ( 'NONE',  ( -1.000000000000000000, 0.000000000000000000, 0.000000000000000000 ) ) ;
#10 = APPROVAL_STATUS ( 'not_yet_approved' ) ;
#11 = PERSON_AND_ORGANIZATION_ROLE ( 'creator' ) ;
#12 = ORIENTED_EDGE ( 'NONE', *, *, #53, .T. ) ;
#13 = LOCAL_TIME ( 10, 29, 27.00000000000000000, #129 ) ;
#14 = ORIENTED_EDGE ( 'NONE', *, *, #71, .T. ) ;
#15 = ADVANCED_FACE ( 'NONE', ( #170 ), #62, .F. ) ;
#16 = FACE_OUTER_BOUND ( 'NONE', #184, .T. ) ;
#17 = DIRECTION ( 'NONE',  ( -0.000000000000000000, -0.000000000000000000, -1.000000000000000000 ) ) ;
#18 = DIRECTION ( 'NONE',  ( 1.000000000000000000, 0.000000000000000000, 0.000000000000000000 ) ) ;
#19 = LOCAL_TIME ( 10, 29, 27.00000000000000000, #5 ) ;
#20 = DATE_TIME_ROLE ( 'creation_date' ) ;
#21 = PERSON_AND_ORGANIZATION ( #93, #149 ) ;
#22 = PRODUCT ( '010-1103E_UVFS_PCV_window', '010-1103E_UVFS_PCV_window', '', ( #117 ) ) ;
#23 = CALENDAR_DATE ( 2021, 25, 2 ) ;
#24 = PERSON_AND_ORGANIZATION ( #93, #149 ) ;
#25 = PERSON_AND_ORGANIZATION ( #93, #149 ) ;
#26 = CIRCLE ( 'NONE', #6, 6.349999999999999645 ) ;
#27 = CIRCLE ( 'NONE', #163, 6.350000000000028066 ) ;
#28 =( GEOMETRIC_REPRESENTATION_CONTEXT ( 3 ) GLOBAL_UNCERTAINTY_ASSIGNED_CONTEXT ( ( #75 ) ) GLOBAL_UNIT_ASSIGNED_CONTEXT ( ( #133, #52, #50 ) ) REPRESENTATION_CONTEXT ( 'NONE', 'WORKASPACE' ) );
#29 = DIRECTION ( 'NONE',  ( 1.224646799147353207E-16, -1.000000000000000000, 0.000000000000000000 ) ) ;
#30 = CALENDAR_DATE ( 2021, 25, 2 ) ;
#31 = PRODUCT_RELATED_PRODUCT_CATEGORY ( 'detail', '', ( #22 ) ) ;
#32 = ORIENTED_EDGE ( 'NONE', *, *, #177, .T. ) ;
#33 = PERSON_AND_ORGANIZATION ( #93, #149 ) ;
#34 = DIRECTION ( 'NONE',  ( 1.000000000000000000, 0.000000000000000000, 0.000000000000000000 ) ) ;
#35 = CARTESIAN_POINT ( 'NONE',  ( 0.000000000000000000, 0.000000000000000000, 0.000000000000000000 ) ) ;
#36 = COORDINATED_UNIVERSAL_TIME_OFFSET ( 2, 0, .AHEAD. ) ;
#37 = CARTESIAN_POINT ( 'NONE',  ( 6.349999999999999645, 7.776507174585692163E-16, 3.000000000000000000 ) ) ;
#38 = DIRECTION ( 'NONE',  ( 0.000000000000000000, 0.000000000000000000, 1.000000000000000000 ) ) ;
#39 = DIRECTION ( 'NONE',  ( -0.000000000000000000, -0.000000000000000000, -1.000000000000000000 ) ) ;
#40 = AXIS2_PLACEMENT_3D ( 'NONE', #99, #124, #190 ) ;
#41 = APPROVAL_PERSON_ORGANIZATION ( #33, #81, #61 ) ;
#42 = AXIS2_PLACEMENT_3D ( 'NONE', #92, #151, #152 ) ;
#43 = CARTESIAN_POINT ( 'NONE',  ( 7.806255641895631925E-15, 0.000000000000000000, 52.59513585020209092 ) ) ;
#44 = CC_DESIGN_PERSON_AND_ORGANIZATION_ASSIGNMENT ( #21, #143, ( #106 ) ) ;
#45 = EDGE_LOOP ( 'NONE', ( #32, #104, #189, #166 ) ) ;
#46 = AXIS2_PLACEMENT_3D ( 'NONE', #47, #114, #175 ) ;
#47 = CARTESIAN_POINT ( 'NONE',  ( 7.806255641895631925E-15, 0.000000000000000000, 52.59513585020209092 ) ) ;
#48 = CARTESIAN_POINT ( 'NONE',  ( 7.806255641895631925E-15, 0.000000000000000000, 52.59513585020209092 ) ) ;
#49 = CARTESIAN_POINT ( 'NONE',  ( -6.349999999999999645, 0.000000000000000000, 0.000000000000000000 ) ) ;
#50 =( NAMED_UNIT ( * ) SI_UNIT ( $, .STERADIAN. ) SOLID_ANGLE_UNIT ( ) );
#51 = CIRCLE ( 'NONE', #46, 50.00000000000001421 ) ;
#52 =( NAMED_UNIT ( * ) PLANE_ANGLE_UNIT ( ) SI_UNIT ( $, .RADIAN. ) );
#53 = EDGE_CURVE ( 'NONE', #155, #76, #150, .T. ) ;
#54 = DATE_AND_TIME ( #55, #84 ) ;
#55 = CALENDAR_DATE ( 2021, 25, 2 ) ;
#56 = ORIENTED_EDGE ( 'NONE', *, *, #109, .T. ) ;
#57 = EDGE_LOOP ( 'NONE', ( #110, #123 ) ) ;
#58 = FACE_OUTER_BOUND ( 'NONE', #164, .T. ) ;
#59 = APPROVAL_PERSON_ORGANIZATION ( #86, #116, #69 ) ;
#60 = CARTESIAN_POINT ( 'NONE',  ( 6.349999999999999645, 7.776507174585692163E-16, 0.000000000000000000 ) ) ;
#61 = APPROVAL_ROLE ( '' ) ;
#62 = PLANE ( 'NONE',  #42 ) ;
#63 = PRODUCT_DEFINITION_SHAPE ( 'NONE', 'NONE',  #183 ) ;
#64 = EDGE_LOOP ( 'NONE', ( #94, #108, #188 ) ) ;
#65 = CYLINDRICAL_SURFACE ( 'NONE', #40, 6.349999999999999645 ) ;
#66 = DIRECTION ( 'NONE',  ( -0.000000000000000000, -0.000000000000000000, -1.000000000000000000 ) ) ;
#67 = APPROVAL_DATE_TIME ( #8, #81 ) ;
#68 = DIRECTION ( 'NONE',  ( 0.000000000000000000, 0.000000000000000000, 1.000000000000000000 ) ) ;
#69 = APPROVAL_ROLE ( '' ) ;
#70 = PERSON_AND_ORGANIZATION ( #93, #149 ) ;
#71 = EDGE_CURVE ( 'NONE', #72, #155, #95, .T. ) ;
#72 = VERTEX_POINT ( 'NONE', #138 ) ;
#73 = ORIENTED_EDGE ( 'NONE', *, *, #161, .F. ) ;
#74 = MANIFOLD_SOLID_BREP ( 'Cut-Revolve1', #120 ) ;
#75 = UNCERTAINTY_MEASURE_WITH_UNIT (LENGTH_MEASURE( 1.000000000000000082E-05 ), #133, 'distance_accuracy_value', 'NONE');
#76 = VERTEX_POINT ( 'NONE', #60 ) ;
#77 = DIRECTION ( 'NONE',  ( 0.000000000000000000, 0.000000000000000000, 1.000000000000000000 ) ) ;
#78 = FACE_OUTER_BOUND ( 'NONE', #64, .T. ) ;
#79 = AXIS2_PLACEMENT_3D ( 'NONE', #137, #77, #34 ) ;
#80 = VERTEX_POINT ( 'NONE', #2 ) ;
#81 = APPROVAL ( #187, 'UNSPECIFIED' ) ;
#82 = SPHERICAL_SURFACE ( 'NONE', #160, 50.00000000000000711 ) ;
#83 = CARTESIAN_POINT ( 'NONE',  ( 0.000000000000000000, 0.000000000000000000, 0.000000000000000000 ) ) ;
#84 = LOCAL_TIME ( 10, 29, 27.00000000000000000, #162 ) ;
#85 = FACE_OUTER_BOUND ( 'NONE', #45, .T. ) ;
#86 = PERSON_AND_ORGANIZATION ( #93, #149 ) ;
#87 = LINE ( 'NONE', #37, #185 ) ;
#88 = APPROVAL_DATE_TIME ( #176, #116 ) ;
#89 = APPLICATION_CONTEXT ( 'configuration controlled 3d designs of mechanical parts and assemblies' ) ;
#90 = LOCAL_TIME ( 10, 29, 27.00000000000000000, #36 ) ;
#91 = ADVANCED_BREP_SHAPE_REPRESENTATION ( '010-1103E_UVFS_PCV_window', ( #74, #144 ), #28 ) ;
#92 = CARTESIAN_POINT ( 'NONE',  ( 0.000000000000000000, 0.000000000000000000, 0.000000000000000000 ) ) ;
#93 = PERSON ( 'UNSPECIFIED', 'UNSPECIFIED', 'UNSPECIFIED', ('UNSPECIFIED'), ('UNSPECIFIED'), ('UNSPECIFIED') ) ;
#94 = ORIENTED_EDGE ( 'NONE', *, *, #109, .F. ) ;
#95 = LINE ( 'NONE', #157, #182 ) ;
#96 = DIRECTION ( 'NONE',  ( 0.000000000000000000, -1.000000000000000000, -0.000000000000000000 ) ) ;
#97 = CALENDAR_DATE ( 2021, 25, 2 ) ;
#98 = CIRCLE ( 'NONE', #101, 6.350000000000028066 ) ;
#99 = CARTESIAN_POINT ( 'NONE',  ( 0.000000000000000000, 0.000000000000000000, 3.000000000000000000 ) ) ;
#100 = APPLICATION_PROTOCOL_DEFINITION ( 'international standard', 'config_control_design', 1994, #89 ) ;
#101 = AXIS2_PLACEMENT_3D ( 'NONE', #128, #191, #112 ) ;
#102 = ADVANCED_FACE ( 'NONE', ( #58 ), #186, .F. ) ;
#103 = AXIS2_PLACEMENT_3D ( 'NONE', #173, #17, #9 ) ;
#104 = ORIENTED_EDGE ( 'NONE', *, *, #171, .T. ) ;
#105 = CARTESIAN_POINT ( 'NONE',  ( 6.350000000000036060, 7.776507174585737522E-16, 3.000000000000002665 ) ) ;
#106 = SECURITY_CLASSIFICATION ( '', '', #168 ) ;
#107 = DIRECTION ( 'NONE',  ( 0.000000000000000000, -1.000000000000000000, -0.000000000000000000 ) ) ;
#108 = ORIENTED_EDGE ( 'NONE', *, *, #140, .F. ) ;
#109 = EDGE_CURVE ( 'NONE', #72, #80, #134, .T. ) ;
#110 = ORIENTED_EDGE ( 'NONE', *, *, #53, .F. ) ;
#111 = LOCAL_TIME ( 10, 29, 27.00000000000000000, #172 ) ;
#112 = DIRECTION ( 'NONE',  ( 1.000000000000000000, 0.000000000000000000, 0.000000000000000000 ) ) ;
#113 = CC_DESIGN_PERSON_AND_ORGANIZATION_ASSIGNMENT ( #70, #178, ( #197 ) ) ;
#114 = DIRECTION ( 'NONE',  ( 0.000000000000000000, 1.000000000000000000, -0.000000000000000000 ) ) ;
#115 = DIRECTION ( 'NONE',  ( 1.000000000000000000, 0.000000000000000000, 0.000000000000000000 ) ) ;
#116 = APPROVAL ( #10, 'UNSPECIFIED' ) ;
#117 = MECHANICAL_CONTEXT ( 'NONE', #89, 'mechanical' ) ;
#118 = ADVANCED_FACE ( 'NONE', ( #78 ), #82, .F. ) ;
#119 = ADVANCED_FACE ( 'NONE', ( #16 ), #65, .T. ) ;
#120 = CLOSED_SHELL ( 'NONE', ( #102, #122, #119, #15, #118 ) ) ;
#121 = DIRECTION ( 'NONE',  ( 1.000000000000000000, 0.000000000000000000, 0.000000000000000000 ) ) ;
#122 = ADVANCED_FACE ( 'NONE', ( #85 ), #145, .T. ) ;
#123 = ORIENTED_EDGE ( 'NONE', *, *, #135, .F. ) ;
#124 = DIRECTION ( 'NONE',  ( -0.000000000000000000, -0.000000000000000000, -1.000000000000000000 ) ) ;
#125 = CC_DESIGN_DATE_AND_TIME_ASSIGNMENT ( #126, #158, ( #106 ) ) ;
#126 = DATE_AND_TIME ( #201, #111 ) ;
#127 = APPLICATION_CONTEXT ( 'configuration controlled 3d designs of mechanical parts and assemblies' ) ;
#128 = CARTESIAN_POINT ( 'NONE',  ( 7.806255641895631925E-15, 0.000000000000000000, 3.000000000000002665 ) ) ;
#129 = COORDINATED_UNIVERSAL_TIME_OFFSET ( 2, 0, .AHEAD. ) ;
#130 = APPLICATION_PROTOCOL_DEFINITION ( 'international standard', 'config_control_design', 1994, #127 ) ;
#131 = CC_DESIGN_APPROVAL ( #81, ( #106 ) ) ;
#132 = CARTESIAN_POINT ( 'NONE',  ( 7.806255641895631925E-15, 0.000000000000000000, 3.000000000000002665 ) ) ;
#133 =( LENGTH_UNIT ( ) NAMED_UNIT ( * ) SI_UNIT ( .MILLI., .METRE. ) );
#134 = CIRCLE ( 'NONE', #181, 50.00000000000000711 ) ;
#135 = EDGE_CURVE ( 'NONE', #76, #155, #26, .T. ) ;
#136 = AXIS2_PLACEMENT_3D ( 'NONE', #43, #107, #121 ) ;
#137 = CARTESIAN_POINT ( 'NONE',  ( 0.000000000000000000, 0.000000000000000000, 0.000000000000000000 ) ) ;
#138 = CARTESIAN_POINT ( 'NONE',  ( -6.350000000000020961, 0.000000000000000000, 3.000000000000002665 ) ) ;
#139 = APPROVAL ( #195, 'UNSPECIFIED' ) ;
#140 = EDGE_CURVE ( 'NONE', #3, #72, #98, .T. ) ;
#141 = DIRECTION ( 'NONE',  ( 1.000000000000000000, 0.000000000000000000, 0.000000000000000000 ) ) ;
#142 = DIRECTION ( 'NONE',  ( 1.000000000000000000, 0.000000000000000000, 0.000000000000000000 ) ) ;
#143 = PERSON_AND_ORGANIZATION_ROLE ( 'classification_officer' ) ;
#144 = AXIS2_PLACEMENT_3D ( 'NONE', #83, #38, #142 ) ;
#145 = CYLINDRICAL_SURFACE ( 'NONE', #103, 6.349999999999999645 ) ;
#146 = PERSON_AND_ORGANIZATION ( #93, #149 ) ;
#147 = CC_DESIGN_DATE_AND_TIME_ASSIGNMENT ( #159, #20, ( #183 ) ) ;
#148 = APPROVAL_DATE_TIME ( #54, #139 ) ;
#149 = ORGANIZATION ( 'UNSPECIFIED', 'UNSPECIFIED', '' ) ;
#150 = CIRCLE ( 'NONE', #79, 6.349999999999999645 ) ;
#151 = DIRECTION ( 'NONE',  ( 0.000000000000000000, 0.000000000000000000, 1.000000000000000000 ) ) ;
#152 = DIRECTION ( 'NONE',  ( 1.000000000000000000, 0.000000000000000000, -0.000000000000000000 ) ) ;
#153 = DIRECTION ( 'NONE',  ( 1.000000000000000000, 1.224646799147353207E-16, 0.000000000000000000 ) ) ;
#154 = SHAPE_DEFINITION_REPRESENTATION ( #63, #91 ) ;
#155 = VERTEX_POINT ( 'NONE', #49 ) ;
#156 = CC_DESIGN_SECURITY_CLASSIFICATION ( #106, ( #197 ) ) ;
#157 = CARTESIAN_POINT ( 'NONE',  ( -6.349999999999999645, 0.000000000000000000, 3.000000000000000000 ) ) ;
#158 = DATE_TIME_ROLE ( 'classification_date' ) ;
#159 = DATE_AND_TIME ( #97, #90 ) ;
#160 = AXIS2_PLACEMENT_3D ( 'NONE', #48, #96, #18 ) ;
#161 = EDGE_CURVE ( 'NONE', #3, #80, #51, .T. ) ;
#162 = COORDINATED_UNIVERSAL_TIME_OFFSET ( 2, 0, .AHEAD. ) ;
#163 = AXIS2_PLACEMENT_3D ( 'NONE', #132, #39, #115 ) ;
#164 = EDGE_LOOP ( 'NONE', ( #169, #56, #73 ) ) ;
#165 = ORIENTED_EDGE ( 'NONE', *, *, #140, .T. ) ;
#166 = ORIENTED_EDGE ( 'NONE', *, *, #71, .F. ) ;
#167 = CARTESIAN_POINT ( 'NONE',  ( 7.806255641895631925E-15, 0.000000000000000000, 52.59513585020209092 ) ) ;
#168 = SECURITY_CLASSIFICATION_LEVEL ( 'unclassified' ) ;
#169 = ORIENTED_EDGE ( 'NONE', *, *, #177, .F. ) ;
#170 = FACE_OUTER_BOUND ( 'NONE', #57, .T. ) ;
#171 = EDGE_CURVE ( 'NONE', #3, #76, #87, .T. ) ;
#172 = COORDINATED_UNIVERSAL_TIME_OFFSET ( 2, 0, .AHEAD. ) ;
#173 = CARTESIAN_POINT ( 'NONE',  ( 0.000000000000000000, 0.000000000000000000, 3.000000000000000000 ) ) ;
#174 = PERSON_AND_ORGANIZATION_ROLE ( 'creator' ) ;
#175 = DIRECTION ( 'NONE',  ( 0.000000000000000000, 0.000000000000000000, 1.000000000000000000 ) ) ;
#176 = DATE_AND_TIME ( #23, #13 ) ;
#177 = EDGE_CURVE ( 'NONE', #72, #3, #27, .T. ) ;
#178 = PERSON_AND_ORGANIZATION_ROLE ( 'design_supplier' ) ;
#179 = APPROVAL_ROLE ( '' ) ;
#180 = CC_DESIGN_PERSON_AND_ORGANIZATION_ASSIGNMENT ( #25, #7, ( #22 ) ) ;
#181 = AXIS2_PLACEMENT_3D ( 'NONE', #167, #29, #153 ) ;
#182 = VECTOR ( 'NONE', #200, 1000.000000000000000 ) ;
#183 = PRODUCT_DEFINITION ( 'UNKNOWN', '', #197, #199 ) ;
#184 = EDGE_LOOP ( 'NONE', ( #4, #165, #14, #12 ) ) ;
#185 = VECTOR ( 'NONE', #66, 1000.000000000000000 ) ;
#186 = SPHERICAL_SURFACE ( 'NONE', #136, 50.00000000000000711 ) ;
#187 = APPROVAL_STATUS ( 'not_yet_approved' ) ;
#188 = ORIENTED_EDGE ( 'NONE', *, *, #161, .T. ) ;
#189 = ORIENTED_EDGE ( 'NONE', *, *, #135, .T. ) ;
#190 = DIRECTION ( 'NONE',  ( -1.000000000000000000, 0.000000000000000000, 0.000000000000000000 ) ) ;
#191 = DIRECTION ( 'NONE',  ( -0.000000000000000000, -0.000000000000000000, -1.000000000000000000 ) ) ;
#192 = CC_DESIGN_PERSON_AND_ORGANIZATION_ASSIGNMENT ( #146, #11, ( #197 ) ) ;
#193 = PERSON_AND_ORGANIZATION ( #93, #149 ) ;
#194 = APPROVAL_PERSON_ORGANIZATION ( #193, #139, #179 ) ;
#195 = APPROVAL_STATUS ( 'not_yet_approved' ) ;
#196 = CC_DESIGN_APPROVAL ( #116, ( #197 ) ) ;
#197 = PRODUCT_DEFINITION_FORMATION_WITH_SPECIFIED_SOURCE ( 'ANY', '', #22, .NOT_KNOWN. ) ;
#198 = CC_DESIGN_PERSON_AND_ORGANIZATION_ASSIGNMENT ( #24, #174, ( #183 ) ) ;
#199 = DESIGN_CONTEXT ( 'detailed design', #127, 'design' ) ;
#200 = DIRECTION ( 'NONE',  ( -0.000000000000000000, -0.000000000000000000, -1.000000000000000000 ) ) ;
#201 = CALENDAR_DATE ( 2021, 25, 2 ) ;
ENDSEC;
END-ISO-10303-21;
