ISO-10303-21;
HEADER;
FILE_DESCRIPTION (( 'STEP AP203' ),
    '1' );
FILE_NAME ('010-0845E_N-BK7_PCV_window.STEP',
    '2021-02-26T06:25:58',
    ( '' ),
    ( '' ),
    'SwSTEP 2.0',
    'SolidWorks 2019',
    '' );
FILE_SCHEMA (( 'CONFIG_CONTROL_DESIGN' ));
ENDSEC;

DATA;
#1 = COORDINATED_UNIVERSAL_TIME_OFFSET ( 2, 0, .AHEAD. ) ;
#2 = LOCAL_TIME ( 8, 25, 58.00000000000000000, #189 ) ;
#3 = APPROVAL_STATUS ( 'not_yet_approved' ) ;
#4 = DATE_TIME_ROLE ( 'classification_date' ) ;
#5 = EDGE_CURVE ( 'NONE', #107, #136, #177, .T. ) ;
#6 = CALENDAR_DATE ( 2021, 26, 2 ) ;
#7 = ADVANCED_FACE ( 'NONE', ( #183 ), #28, .F. ) ;
#8 = VERTEX_POINT ( 'NONE', #48 ) ;
#9 = ADVANCED_FACE ( 'NONE', ( #124 ), #152, .F. ) ;
#10 = SHAPE_DEFINITION_REPRESENTATION ( #163, #182 ) ;
#11 = CIRCLE ( 'NONE', #46, 3000.000000000000000 ) ;
#12 = PERSON ( 'UNSPECIFIED', 'UNSPECIFIED', 'UNSPECIFIED', ('UNSPECIFIED'), ('UNSPECIFIED'), ('UNSPECIFIED') ) ;
#13 = CYLINDRICAL_SURFACE ( 'NONE', #35, 50.79999999999999716 ) ;
#14 = DIRECTION ( 'NONE',  ( -1.000000000000000000, 0.000000000000000000, 0.000000000000000000 ) ) ;
#15 = DIRECTION ( 'NONE',  ( 1.000000000000000000, 0.000000000000000000, 0.000000000000000000 ) ) ;
#16 = SECURITY_CLASSIFICATION ( '', '', #156 ) ;
#17 = CARTESIAN_POINT ( 'NONE',  ( 3.677613769070831040E-13, 0.000000000000000000, 15.00000000000012434 ) ) ;
#18 = DESIGN_CONTEXT ( 'detailed design', #65, 'design' ) ;
#19 = CC_DESIGN_DATE_AND_TIME_ASSIGNMENT ( #83, #4, ( #16 ) ) ;
#20 = LINE ( 'NONE', #195, #198 ) ;
#21 =( LENGTH_UNIT ( ) NAMED_UNIT ( * ) SI_UNIT ( .MILLI., .METRE. ) );
#22 = VECTOR ( 'NONE', #93, 1000.000000000000000 ) ;
#23 = PERSON_AND_ORGANIZATION_ROLE ( 'creator' ) ;
#24 = APPLICATION_PROTOCOL_DEFINITION ( 'international standard', 'config_control_design', 1994, #65 ) ;
#25 = PERSON_AND_ORGANIZATION ( #12, #150 ) ;
#26 = EDGE_LOOP ( 'NONE', ( #122, #193 ) ) ;
#27 = ORIENTED_EDGE ( 'NONE', *, *, #178, .F. ) ;
#28 = SPHERICAL_SURFACE ( 'NONE', #141, 3000.000000000000000 ) ;
#29 = ORIENTED_EDGE ( 'NONE', *, *, #147, .F. ) ;
#30 = UNCERTAINTY_MEASURE_WITH_UNIT (LENGTH_MEASURE( 1.000000000000000082E-05 ), #21, 'distance_accuracy_value', 'NONE');
#31 = CARTESIAN_POINT ( 'NONE',  ( -50.79999999999999716, 0.000000000000000000, 15.00000000000000000 ) ) ;
#32 = DIRECTION ( 'NONE',  ( -0.000000000000000000, -0.000000000000000000, -1.000000000000000000 ) ) ;
#33 = PERSON_AND_ORGANIZATION ( #12, #150 ) ;
#34 = COORDINATED_UNIVERSAL_TIME_OFFSET ( 2, 0, .AHEAD. ) ;
#35 = AXIS2_PLACEMENT_3D ( 'NONE', #91, #127, #14 ) ;
#36 = PRODUCT_RELATED_PRODUCT_CATEGORY ( 'detail', '', ( #196 ) ) ;
#37 = CALENDAR_DATE ( 2021, 26, 2 ) ;
#38 = DIRECTION ( 'NONE',  ( 0.000000000000000000, 0.000000000000000000, 1.000000000000000000 ) ) ;
#39 = VERTEX_POINT ( 'NONE', #185 ) ;
#40 = CC_DESIGN_APPROVAL ( #72, ( #112 ) ) ;
#41 = CALENDAR_DATE ( 2021, 26, 2 ) ;
#42 = ORIENTED_EDGE ( 'NONE', *, *, #157, .F. ) ;
#43 = EDGE_LOOP ( 'NONE', ( #56, #29, #90 ) ) ;
#44 = CARTESIAN_POINT ( 'NONE',  ( 3.677613769070831040E-13, 0.000000000000000000, 15.00000000000012434 ) ) ;
#45 =( GEOMETRIC_REPRESENTATION_CONTEXT ( 3 ) GLOBAL_UNCERTAINTY_ASSIGNED_CONTEXT ( ( #30 ) ) GLOBAL_UNIT_ASSIGNED_CONTEXT ( ( #21, #66, #175 ) ) REPRESENTATION_CONTEXT ( 'NONE', 'WORKASPACE' ) );
#46 = AXIS2_PLACEMENT_3D ( 'NONE', #59, #123, #179 ) ;
#47 = FACE_OUTER_BOUND ( 'NONE', #43, .T. ) ;
#48 = CARTESIAN_POINT ( 'NONE',  ( 50.79999999999731131, 6.221205739668390436E-15, 15.00000000000012434 ) ) ;
#49 = MANIFOLD_SOLID_BREP ( 'Cut-Revolve1', #102 ) ;
#50 = DIRECTION ( 'NONE',  ( -0.000000000000000000, -0.000000000000000000, -1.000000000000000000 ) ) ;
#51 = CARTESIAN_POINT ( 'NONE',  ( 0.000000000000000000, 0.000000000000000000, 15.00000000000000000 ) ) ;
#52 = PERSON_AND_ORGANIZATION_ROLE ( 'classification_officer' ) ;
#53 = PERSON_AND_ORGANIZATION_ROLE ( 'creator' ) ;
#54 = AXIS2_PLACEMENT_3D ( 'NONE', #77, #170, #15 ) ;
#55 = ADVANCED_FACE ( 'NONE', ( #47 ), #151, .F. ) ;
#56 = ORIENTED_EDGE ( 'NONE', *, *, #169, .F. ) ;
#57 = CIRCLE ( 'NONE', #88, 50.79999999999999716 ) ;
#58 = ADVANCED_FACE ( 'NONE', ( #110 ), #138, .T. ) ;
#59 = CARTESIAN_POINT ( 'NONE',  ( 3.677613769070831040E-13, 0.000000000000000000, 3014.569862496955011 ) ) ;
#60 = AXIS2_PLACEMENT_3D ( 'NONE', #181, #200, #108 ) ;
#61 = CC_DESIGN_PERSON_AND_ORGANIZATION_ASSIGNMENT ( #190, #53, ( #121 ) ) ;
#62 = CC_DESIGN_DATE_AND_TIME_ASSIGNMENT ( #134, #188, ( #112 ) ) ;
#63 = PERSON_AND_ORGANIZATION ( #12, #150 ) ;
#64 = APPROVAL_STATUS ( 'not_yet_approved' ) ;
#65 = APPLICATION_CONTEXT ( 'configuration controlled 3d designs of mechanical parts and assemblies' ) ;
#66 =( NAMED_UNIT ( * ) PLANE_ANGLE_UNIT ( ) SI_UNIT ( $, .RADIAN. ) );
#67 = CIRCLE ( 'NONE', #130, 50.79999999999694182 ) ;
#68 = DIRECTION ( 'NONE',  ( 1.000000000000000000, 0.000000000000000000, 0.000000000000000000 ) ) ;
#69 = ORIENTED_EDGE ( 'NONE', *, *, #100, .T. ) ;
#70 = DATE_AND_TIME ( #41, #116 ) ;
#71 = LOCAL_TIME ( 8, 25, 58.00000000000000000, #118 ) ;
#72 = APPROVAL ( #3, 'UNSPECIFIED' ) ;
#73 = ORIENTED_EDGE ( 'NONE', *, *, #157, .T. ) ;
#74 = EDGE_LOOP ( 'NONE', ( #42, #197, #148, #69 ) ) ;
#75 = ADVANCED_FACE ( 'NONE', ( #140 ), #13, .T. ) ;
#76 = CARTESIAN_POINT ( 'NONE',  ( 0.000000000000000000, 0.000000000000000000, 0.000000000000000000 ) ) ;
#77 = CARTESIAN_POINT ( 'NONE',  ( 3.677613769070831040E-13, 0.000000000000000000, 3014.569862496955011 ) ) ;
#78 = EDGE_LOOP ( 'NONE', ( #194, #73, #165, #120 ) ) ;
#79 = DIRECTION ( 'NONE',  ( 1.000000000000000000, 0.000000000000000000, 0.000000000000000000 ) ) ;
#80 = DIRECTION ( 'NONE',  ( -1.000000000000000000, 0.000000000000000000, 0.000000000000000000 ) ) ;
#81 = PERSON_AND_ORGANIZATION ( #12, #150 ) ;
#82 = CALENDAR_DATE ( 2021, 26, 2 ) ;
#83 = DATE_AND_TIME ( #82, #71 ) ;
#84 = CC_DESIGN_PERSON_AND_ORGANIZATION_ASSIGNMENT ( #25, #23, ( #112 ) ) ;
#85 = APPROVAL_ROLE ( '' ) ;
#86 = DIRECTION ( 'NONE',  ( 1.000000000000000000, 0.000000000000000000, 0.000000000000000000 ) ) ;
#87 = APPROVAL_PERSON_ORGANIZATION ( #81, #191, #143 ) ;
#88 = AXIS2_PLACEMENT_3D ( 'NONE', #94, #113, #126 ) ;
#89 = CC_DESIGN_PERSON_AND_ORGANIZATION_ASSIGNMENT ( #63, #117, ( #196 ) ) ;
#90 = ORIENTED_EDGE ( 'NONE', *, *, #95, .T. ) ;
#91 = CARTESIAN_POINT ( 'NONE',  ( 0.000000000000000000, 0.000000000000000000, 15.00000000000000000 ) ) ;
#92 = DIRECTION ( 'NONE',  ( 0.000000000000000000, 0.000000000000000000, 1.000000000000000000 ) ) ;
#93 = DIRECTION ( 'NONE',  ( -0.000000000000000000, -0.000000000000000000, -1.000000000000000000 ) ) ;
#94 = CARTESIAN_POINT ( 'NONE',  ( 0.000000000000000000, 0.000000000000000000, 0.000000000000000000 ) ) ;
#95 = EDGE_CURVE ( 'NONE', #8, #106, #166, .T. ) ;
#96 = PERSON_AND_ORGANIZATION_ROLE ( 'design_supplier' ) ;
#97 = CC_DESIGN_SECURITY_CLASSIFICATION ( #16, ( #121 ) ) ;
#98 = APPROVAL_STATUS ( 'not_yet_approved' ) ;
#99 = DATE_AND_TIME ( #37, #164 ) ;
#100 = EDGE_CURVE ( 'NONE', #136, #107, #57, .T. ) ;
#101 = PERSON_AND_ORGANIZATION ( #12, #150 ) ;
#102 = CLOSED_SHELL ( 'NONE', ( #7, #75, #58, #9, #55 ) ) ;
#103 = APPROVAL ( #64, 'UNSPECIFIED' ) ;
#104 = APPROVAL_DATE_TIME ( #70, #103 ) ;
#105 = APPLICATION_CONTEXT ( 'configuration controlled 3d designs of mechanical parts and assemblies' ) ;
#106 = VERTEX_POINT ( 'NONE', #201 ) ;
#107 = VERTEX_POINT ( 'NONE', #109 ) ;
#108 = DIRECTION ( 'NONE',  ( 1.000000000000000000, 0.000000000000000000, -0.000000000000000000 ) ) ;
#109 = CARTESIAN_POINT ( 'NONE',  ( 50.79999999999999716, 6.221205739668553730E-15, 0.000000000000000000 ) ) ;
#110 = FACE_OUTER_BOUND ( 'NONE', #74, .T. ) ;
#111 = AXIS2_PLACEMENT_3D ( 'NONE', #17, #50, #155 ) ;
#112 = PRODUCT_DEFINITION ( 'UNKNOWN', '', #121, #18 ) ;
#113 = DIRECTION ( 'NONE',  ( 0.000000000000000000, 0.000000000000000000, 1.000000000000000000 ) ) ;
#114 = CARTESIAN_POINT ( 'NONE',  ( 0.000000000000000000, 0.000000000000000000, 0.000000000000000000 ) ) ;
#115 = APPLICATION_PROTOCOL_DEFINITION ( 'international standard', 'config_control_design', 1994, #105 ) ;
#116 = LOCAL_TIME ( 8, 25, 58.00000000000000000, #119 ) ;
#117 = PERSON_AND_ORGANIZATION_ROLE ( 'design_owner' ) ;
#118 = COORDINATED_UNIVERSAL_TIME_OFFSET ( 2, 0, .AHEAD. ) ;
#119 = COORDINATED_UNIVERSAL_TIME_OFFSET ( 2, 0, .AHEAD. ) ;
#120 = ORIENTED_EDGE ( 'NONE', *, *, #128, .F. ) ;
#121 = PRODUCT_DEFINITION_FORMATION_WITH_SPECIFIED_SOURCE ( 'ANY', '', #196, .NOT_KNOWN. ) ;
#122 = ORIENTED_EDGE ( 'NONE', *, *, #100, .F. ) ;
#123 = DIRECTION ( 'NONE',  ( 1.224646799147353207E-16, -1.000000000000000000, 0.000000000000000000 ) ) ;
#124 = FACE_OUTER_BOUND ( 'NONE', #26, .T. ) ;
#125 = APPROVAL_PERSON_ORGANIZATION ( #101, #103, #132 ) ;
#126 = DIRECTION ( 'NONE',  ( 1.000000000000000000, 0.000000000000000000, 0.000000000000000000 ) ) ;
#127 = DIRECTION ( 'NONE',  ( -0.000000000000000000, -0.000000000000000000, -1.000000000000000000 ) ) ;
#128 = EDGE_CURVE ( 'NONE', #39, #136, #168, .T. ) ;
#129 = DIRECTION ( 'NONE',  ( 1.000000000000000000, 0.000000000000000000, 0.000000000000000000 ) ) ;
#130 = AXIS2_PLACEMENT_3D ( 'NONE', #44, #159, #86 ) ;
#131 = APPROVAL_DATE_TIME ( #146, #72 ) ;
#132 = APPROVAL_ROLE ( '' ) ;
#133 = PERSON_AND_ORGANIZATION ( #12, #150 ) ;
#134 = DATE_AND_TIME ( #6, #2 ) ;
#135 = CIRCLE ( 'NONE', #111, 50.79999999999694182 ) ;
#136 = VERTEX_POINT ( 'NONE', #154 ) ;
#137 = APPROVAL_PERSON_ORGANIZATION ( #186, #72, #85 ) ;
#138 = CYLINDRICAL_SURFACE ( 'NONE', #162, 50.79999999999999716 ) ;
#139 = ORIENTED_EDGE ( 'NONE', *, *, #169, .T. ) ;
#140 = FACE_OUTER_BOUND ( 'NONE', #78, .T. ) ;
#141 = AXIS2_PLACEMENT_3D ( 'NONE', #167, #153, #129 ) ;
#142 = CARTESIAN_POINT ( 'NONE',  ( 3.677613769070831040E-13, 0.000000000000000000, 3014.569862496955011 ) ) ;
#143 = APPROVAL_ROLE ( '' ) ;
#144 = AXIS2_PLACEMENT_3D ( 'NONE', #76, #92, #79 ) ;
#145 = LOCAL_TIME ( 8, 25, 58.00000000000000000, #34 ) ;
#146 = DATE_AND_TIME ( #187, #145 ) ;
#147 = EDGE_CURVE ( 'NONE', #8, #39, #135, .T. ) ;
#148 = ORIENTED_EDGE ( 'NONE', *, *, #128, .T. ) ;
#149 = EDGE_LOOP ( 'NONE', ( #27, #139, #192 ) ) ;
#150 = ORGANIZATION ( 'UNSPECIFIED', 'UNSPECIFIED', '' ) ;
#151 = SPHERICAL_SURFACE ( 'NONE', #54, 3000.000000000000000 ) ;
#152 = PLANE ( 'NONE',  #60 ) ;
#153 = DIRECTION ( 'NONE',  ( 0.000000000000000000, -1.000000000000000000, -0.000000000000000000 ) ) ;
#154 = CARTESIAN_POINT ( 'NONE',  ( -50.79999999999999716, 0.000000000000000000, 0.000000000000000000 ) ) ;
#155 = DIRECTION ( 'NONE',  ( 1.000000000000000000, 0.000000000000000000, 0.000000000000000000 ) ) ;
#156 = SECURITY_CLASSIFICATION_LEVEL ( 'unclassified' ) ;
#157 = EDGE_CURVE ( 'NONE', #8, #107, #20, .T. ) ;
#158 = CC_DESIGN_APPROVAL ( #191, ( #121 ) ) ;
#159 = DIRECTION ( 'NONE',  ( -0.000000000000000000, -0.000000000000000000, -1.000000000000000000 ) ) ;
#160 = MECHANICAL_CONTEXT ( 'NONE', #105, 'mechanical' ) ;
#161 = CC_DESIGN_PERSON_AND_ORGANIZATION_ASSIGNMENT ( #33, #96, ( #121 ) ) ;
#162 = AXIS2_PLACEMENT_3D ( 'NONE', #51, #32, #80 ) ;
#163 = PRODUCT_DEFINITION_SHAPE ( 'NONE', 'NONE',  #112 ) ;
#164 = LOCAL_TIME ( 8, 25, 58.00000000000000000, #1 ) ;
#165 = ORIENTED_EDGE ( 'NONE', *, *, #5, .T. ) ;
#166 = CIRCLE ( 'NONE', #174, 3000.000000000000455 ) ;
#167 = CARTESIAN_POINT ( 'NONE',  ( 3.677613769070831040E-13, 0.000000000000000000, 3014.569862496955011 ) ) ;
#168 = LINE ( 'NONE', #31, #22 ) ;
#169 = EDGE_CURVE ( 'NONE', #39, #106, #11, .T. ) ;
#170 = DIRECTION ( 'NONE',  ( 0.000000000000000000, -1.000000000000000000, -0.000000000000000000 ) ) ;
#171 = AXIS2_PLACEMENT_3D ( 'NONE', #114, #38, #68 ) ;
#172 = DIRECTION ( 'NONE',  ( -0.000000000000000000, -0.000000000000000000, -1.000000000000000000 ) ) ;
#173 = APPROVAL_DATE_TIME ( #99, #191 ) ;
#174 = AXIS2_PLACEMENT_3D ( 'NONE', #142, #184, #199 ) ;
#175 =( NAMED_UNIT ( * ) SI_UNIT ( $, .STERADIAN. ) SOLID_ANGLE_UNIT ( ) );
#176 = CC_DESIGN_PERSON_AND_ORGANIZATION_ASSIGNMENT ( #133, #52, ( #16 ) ) ;
#177 = CIRCLE ( 'NONE', #144, 50.79999999999999716 ) ;
#178 = EDGE_CURVE ( 'NONE', #39, #8, #67, .T. ) ;
#179 = DIRECTION ( 'NONE',  ( 1.000000000000000000, 1.224646799147353207E-16, 0.000000000000000000 ) ) ;
#180 = CC_DESIGN_APPROVAL ( #103, ( #16 ) ) ;
#181 = CARTESIAN_POINT ( 'NONE',  ( 0.000000000000000000, 0.000000000000000000, 0.000000000000000000 ) ) ;
#182 = ADVANCED_BREP_SHAPE_REPRESENTATION ( '010-0845E_N-BK7_PCV_window', ( #49, #171 ), #45 ) ;
#183 = FACE_OUTER_BOUND ( 'NONE', #149, .T. ) ;
#184 = DIRECTION ( 'NONE',  ( 0.000000000000000000, 1.000000000000000000, -0.000000000000000000 ) ) ;
#185 = CARTESIAN_POINT ( 'NONE',  ( -50.79999999999657945, 0.000000000000000000, 15.00000000000012434 ) ) ;
#186 = PERSON_AND_ORGANIZATION ( #12, #150 ) ;
#187 = CALENDAR_DATE ( 2021, 26, 2 ) ;
#188 = DATE_TIME_ROLE ( 'creation_date' ) ;
#189 = COORDINATED_UNIVERSAL_TIME_OFFSET ( 2, 0, .AHEAD. ) ;
#190 = PERSON_AND_ORGANIZATION ( #12, #150 ) ;
#191 = APPROVAL ( #98, 'UNSPECIFIED' ) ;
#192 = ORIENTED_EDGE ( 'NONE', *, *, #95, .F. ) ;
#193 = ORIENTED_EDGE ( 'NONE', *, *, #5, .F. ) ;
#194 = ORIENTED_EDGE ( 'NONE', *, *, #178, .T. ) ;
#195 = CARTESIAN_POINT ( 'NONE',  ( 50.79999999999999716, 6.221205739668553730E-15, 15.00000000000000000 ) ) ;
#196 = PRODUCT ( '010-0845E_N-BK7_PCV_window', '010-0845E_N-BK7_PCV_window', '', ( #160 ) ) ;
#197 = ORIENTED_EDGE ( 'NONE', *, *, #147, .T. ) ;
#198 = VECTOR ( 'NONE', #172, 1000.000000000000000 ) ;
#199 = DIRECTION ( 'NONE',  ( 0.000000000000000000, 0.000000000000000000, 1.000000000000000000 ) ) ;
#200 = DIRECTION ( 'NONE',  ( 0.000000000000000000, 0.000000000000000000, 1.000000000000000000 ) ) ;
#201 = CARTESIAN_POINT ( 'NONE',  ( 5.514583967791860282E-13, 0.000000000000000000, 14.56986249695502167 ) ) ;
ENDSEC;
END-ISO-10303-21;
