ISO-10303-21;
HEADER;
FILE_DESCRIPTION (( 'STEP AP203' ),
    '1' );
FILE_NAME ('010-0835E_N-BK7_PCV_window.STEP',
    '2021-02-26T06:25:21',
    ( '' ),
    ( '' ),
    'SwSTEP 2.0',
    'SolidWorks 2019',
    '' );
FILE_SCHEMA (( 'CONFIG_CONTROL_DESIGN' ));
ENDSEC;

DATA;
#1 = CC_DESIGN_PERSON_AND_ORGANIZATION_ASSIGNMENT ( #183, #62, ( #78 ) ) ;
#2 = APPROVAL_ROLE ( '' ) ;
#3 = AXIS2_PLACEMENT_3D ( 'NONE', #98, #90, #16 ) ;
#4 = PERSON_AND_ORGANIZATION_ROLE ( 'classification_officer' ) ;
#5 =( NAMED_UNIT ( * ) PLANE_ANGLE_UNIT ( ) SI_UNIT ( $, .RADIAN. ) );
#6 = DATE_AND_TIME ( #73, #104 ) ;
#7 = APPROVAL_PERSON_ORGANIZATION ( #139, #137, #2 ) ;
#8 = DATE_AND_TIME ( #144, #41 ) ;
#9 = PRODUCT_RELATED_PRODUCT_CATEGORY ( 'detail', '', ( #149 ) ) ;
#10 = AXIS2_PLACEMENT_3D ( 'NONE', #91, #26, #54 ) ;
#11 = ORIENTED_EDGE ( 'NONE', *, *, #32, .T. ) ;
#12 = CYLINDRICAL_SURFACE ( 'NONE', #148, 50.79999999999999716 ) ;
#13 = CARTESIAN_POINT ( 'NONE',  ( 0.000000000000000000, 0.000000000000000000, 0.000000000000000000 ) ) ;
#14 = CARTESIAN_POINT ( 'NONE',  ( 0.000000000000000000, 0.000000000000000000, 15.00000000000000000 ) ) ;
#15 = DIRECTION ( 'NONE',  ( -1.000000000000000000, 0.000000000000000000, 0.000000000000000000 ) ) ;
#16 = DIRECTION ( 'NONE',  ( 1.000000000000000000, 0.000000000000000000, 0.000000000000000000 ) ) ;
#17 = AXIS2_PLACEMENT_3D ( 'NONE', #164, #22, #152 ) ;
#18 = LOCAL_TIME ( 8, 25, 21.00000000000000000, #92 ) ;
#19 = APPROVAL_DATE_TIME ( #6, #137 ) ;
#20 = VERTEX_POINT ( 'NONE', #66 ) ;
#21 = EDGE_CURVE ( 'NONE', #67, #113, #118, .T. ) ;
#22 = DIRECTION ( 'NONE',  ( 0.000000000000000000, -1.000000000000000000, -0.000000000000000000 ) ) ;
#23 = APPROVAL_PERSON_ORGANIZATION ( #45, #125, #93 ) ;
#24 = PRODUCT_DEFINITION ( 'UNKNOWN', '', #78, #177 ) ;
#25 = CARTESIAN_POINT ( 'NONE',  ( -50.80000000000106297, 0.000000000000000000, 14.99999999999990230 ) ) ;
#26 = DIRECTION ( 'NONE',  ( -0.000000000000000000, -0.000000000000000000, -1.000000000000000000 ) ) ;
#27 = FACE_OUTER_BOUND ( 'NONE', #191, .T. ) ;
#28 = MECHANICAL_CONTEXT ( 'NONE', #47, 'mechanical' ) ;
#29 = APPROVAL_STATUS ( 'not_yet_approved' ) ;
#30 = AXIS2_PLACEMENT_3D ( 'NONE', #103, #154, #168 ) ;
#31 =( NAMED_UNIT ( * ) SI_UNIT ( $, .STERADIAN. ) SOLID_ANGLE_UNIT ( ) );
#32 = EDGE_CURVE ( 'NONE', #174, #20, #49, .T. ) ;
#33 = EDGE_LOOP ( 'NONE', ( #130, #193, #151, #150 ) ) ;
#34 = ORIENTED_EDGE ( 'NONE', *, *, #95, .T. ) ;
#35 = DIRECTION ( 'NONE',  ( -0.000000000000000000, -0.000000000000000000, -1.000000000000000000 ) ) ;
#36 = DIRECTION ( 'NONE',  ( 1.000000000000000000, 0.000000000000000000, 0.000000000000000000 ) ) ;
#37 =( GEOMETRIC_REPRESENTATION_CONTEXT ( 3 ) GLOBAL_UNCERTAINTY_ASSIGNED_CONTEXT ( ( #194 ) ) GLOBAL_UNIT_ASSIGNED_CONTEXT ( ( #59, #5, #31 ) ) REPRESENTATION_CONTEXT ( 'NONE', 'WORKASPACE' ) );
#38 = DIRECTION ( 'NONE',  ( 1.000000000000000000, 0.000000000000000000, -0.000000000000000000 ) ) ;
#39 = DIRECTION ( 'NONE',  ( -0.000000000000000000, -0.000000000000000000, -1.000000000000000000 ) ) ;
#40 = SHAPE_DEFINITION_REPRESENTATION ( #52, #127 ) ;
#41 = LOCAL_TIME ( 8, 25, 21.00000000000000000, #185 ) ;
#42 = PERSON_AND_ORGANIZATION ( #81, #199 ) ;
#43 = APPROVAL_DATE_TIME ( #123, #84 ) ;
#44 = AXIS2_PLACEMENT_3D ( 'NONE', #61, #159, #75 ) ;
#45 = PERSON_AND_ORGANIZATION ( #81, #199 ) ;
#46 = CC_DESIGN_PERSON_AND_ORGANIZATION_ASSIGNMENT ( #42, #105, ( #24 ) ) ;
#47 = APPLICATION_CONTEXT ( 'configuration controlled 3d designs of mechanical parts and assemblies' ) ;
#48 = ORIENTED_EDGE ( 'NONE', *, *, #128, .F. ) ;
#49 = CIRCLE ( 'NONE', #56, 2000.000000000000455 ) ;
#50 = CC_DESIGN_APPROVAL ( #84, ( #78 ) ) ;
#51 = ADVANCED_FACE ( 'NONE', ( #133 ), #12, .T. ) ;
#52 = PRODUCT_DEFINITION_SHAPE ( 'NONE', 'NONE',  #24 ) ;
#53 = EDGE_LOOP ( 'NONE', ( #79, #34, #80, #48 ) ) ;
#54 = DIRECTION ( 'NONE',  ( 1.000000000000000000, 0.000000000000000000, 0.000000000000000000 ) ) ;
#55 = EDGE_CURVE ( 'NONE', #174, #83, #86, .T. ) ;
#56 = AXIS2_PLACEMENT_3D ( 'NONE', #70, #175, #68 ) ;
#57 = CARTESIAN_POINT ( 'NONE',  ( 0.000000000000000000, 0.000000000000000000, 0.000000000000000000 ) ) ;
#58 = ADVANCED_FACE ( 'NONE', ( #102 ), #153, .F. ) ;
#59 =( LENGTH_UNIT ( ) NAMED_UNIT ( * ) SI_UNIT ( .MILLI., .METRE. ) );
#60 = DATE_TIME_ROLE ( 'creation_date' ) ;
#61 = CARTESIAN_POINT ( 'NONE',  ( 0.000000000000000000, 0.000000000000000000, 0.000000000000000000 ) ) ;
#62 = PERSON_AND_ORGANIZATION_ROLE ( 'design_supplier' ) ;
#63 = PERSON_AND_ORGANIZATION ( #81, #199 ) ;
#64 = ADVANCED_FACE ( 'NONE', ( #101 ), #195, .F. ) ;
#65 = CIRCLE ( 'NONE', #3, 50.80000000000131877 ) ;
#66 = CARTESIAN_POINT ( 'NONE',  ( 3.653259665514883433E-13, 0.000000000000000000, 14.35473590856295445 ) ) ;
#67 = VERTEX_POINT ( 'NONE', #165 ) ;
#68 = DIRECTION ( 'NONE',  ( 0.000000000000000000, 0.000000000000000000, 1.000000000000000000 ) ) ;
#69 = DIRECTION ( 'NONE',  ( 1.000000000000000000, 0.000000000000000000, 0.000000000000000000 ) ) ;
#70 = CARTESIAN_POINT ( 'NONE',  ( 2.428612866367529932E-13, 0.000000000000000000, 2014.354735908563043 ) ) ;
#71 = CALENDAR_DATE ( 2021, 26, 2 ) ;
#72 = AXIS2_PLACEMENT_3D ( 'NONE', #196, #162, #100 ) ;
#73 = CALENDAR_DATE ( 2021, 26, 2 ) ;
#74 = LOCAL_TIME ( 8, 25, 21.00000000000000000, #160 ) ;
#75 = DIRECTION ( 'NONE',  ( 1.000000000000000000, 0.000000000000000000, 0.000000000000000000 ) ) ;
#76 = CALENDAR_DATE ( 2021, 26, 2 ) ;
#77 = DATE_TIME_ROLE ( 'classification_date' ) ;
#78 = PRODUCT_DEFINITION_FORMATION_WITH_SPECIFIED_SOURCE ( 'ANY', '', #149, .NOT_KNOWN. ) ;
#79 = ORIENTED_EDGE ( 'NONE', *, *, #145, .T. ) ;
#80 = ORIENTED_EDGE ( 'NONE', *, *, #21, .T. ) ;
#81 = PERSON ( 'UNSPECIFIED', 'UNSPECIFIED', 'UNSPECIFIED', ('UNSPECIFIED'), ('UNSPECIFIED'), ('UNSPECIFIED') ) ;
#82 = AXIS2_PLACEMENT_3D ( 'NONE', #88, #201, #69 ) ;
#83 = VERTEX_POINT ( 'NONE', #25 ) ;
#84 = APPROVAL ( #108, 'UNSPECIFIED' ) ;
#85 = CARTESIAN_POINT ( 'NONE',  ( 50.80000000000155325, 6.221205739668744635E-15, 14.99999999999990230 ) ) ;
#86 = CIRCLE ( 'NONE', #10, 50.80000000000131877 ) ;
#87 = SECURITY_CLASSIFICATION ( '', '', #157 ) ;
#88 = CARTESIAN_POINT ( 'NONE',  ( 0.000000000000000000, 0.000000000000000000, 0.000000000000000000 ) ) ;
#89 = FACE_OUTER_BOUND ( 'NONE', #33, .T. ) ;
#90 = DIRECTION ( 'NONE',  ( -0.000000000000000000, -0.000000000000000000, -1.000000000000000000 ) ) ;
#91 = CARTESIAN_POINT ( 'NONE',  ( 2.428612866367529932E-13, 0.000000000000000000, 14.99999999999990230 ) ) ;
#92 = COORDINATED_UNIVERSAL_TIME_OFFSET ( 2, 0, .AHEAD. ) ;
#93 = APPROVAL_ROLE ( '' ) ;
#94 = COORDINATED_UNIVERSAL_TIME_OFFSET ( 2, 0, .AHEAD. ) ;
#95 = EDGE_CURVE ( 'NONE', #174, #67, #178, .T. ) ;
#96 = ORIENTED_EDGE ( 'NONE', *, *, #192, .T. ) ;
#97 = EDGE_LOOP ( 'NONE', ( #188, #115 ) ) ;
#98 = CARTESIAN_POINT ( 'NONE',  ( 2.428612866367529932E-13, 0.000000000000000000, 14.99999999999990230 ) ) ;
#99 = APPLICATION_CONTEXT ( 'configuration controlled 3d designs of mechanical parts and assemblies' ) ;
#100 = DIRECTION ( 'NONE',  ( 1.000000000000000000, 1.224646799147353207E-16, 0.000000000000000000 ) ) ;
#101 = FACE_OUTER_BOUND ( 'NONE', #190, .T. ) ;
#102 = FACE_OUTER_BOUND ( 'NONE', #97, .T. ) ;
#103 = CARTESIAN_POINT ( 'NONE',  ( 2.428612866367529932E-13, 0.000000000000000000, 2014.354735908563043 ) ) ;
#104 = LOCAL_TIME ( 8, 25, 21.00000000000000000, #94 ) ;
#105 = PERSON_AND_ORGANIZATION_ROLE ( 'creator' ) ;
#106 = APPLICATION_PROTOCOL_DEFINITION ( 'international standard', 'config_control_design', 1994, #99 ) ;
#107 = COORDINATED_UNIVERSAL_TIME_OFFSET ( 2, 0, .AHEAD. ) ;
#108 = APPROVAL_STATUS ( 'not_yet_approved' ) ;
#109 = APPLICATION_PROTOCOL_DEFINITION ( 'international standard', 'config_control_design', 1994, #47 ) ;
#110 = AXIS2_PLACEMENT_3D ( 'NONE', #13, #200, #36 ) ;
#111 = LOCAL_TIME ( 8, 25, 21.00000000000000000, #107 ) ;
#112 = ORIENTED_EDGE ( 'NONE', *, *, #55, .F. ) ;
#113 = VERTEX_POINT ( 'NONE', #138 ) ;
#114 = CC_DESIGN_PERSON_AND_ORGANIZATION_ASSIGNMENT ( #142, #124, ( #149 ) ) ;
#115 = ORIENTED_EDGE ( 'NONE', *, *, #21, .F. ) ;
#116 = CARTESIAN_POINT ( 'NONE',  ( -50.79999999999999716, 0.000000000000000000, 15.00000000000000000 ) ) ;
#117 = DIRECTION ( 'NONE',  ( -0.000000000000000000, -0.000000000000000000, -1.000000000000000000 ) ) ;
#118 = CIRCLE ( 'NONE', #82, 50.79999999999999716 ) ;
#119 = VECTOR ( 'NONE', #136, 1000.000000000000000 ) ;
#120 = CARTESIAN_POINT ( 'NONE',  ( 50.79999999999999716, 6.221205739668553730E-15, 15.00000000000000000 ) ) ;
#121 = CC_DESIGN_PERSON_AND_ORGANIZATION_ASSIGNMENT ( #141, #4, ( #87 ) ) ;
#122 = APPROVAL_ROLE ( '' ) ;
#123 = DATE_AND_TIME ( #76, #74 ) ;
#124 = PERSON_AND_ORGANIZATION_ROLE ( 'design_owner' ) ;
#125 = APPROVAL ( #29, 'UNSPECIFIED' ) ;
#126 = CALENDAR_DATE ( 2021, 26, 2 ) ;
#127 = ADVANCED_BREP_SHAPE_REPRESENTATION ( '010-0835E_N-BK7_PCV_window', ( #132, #44 ), #37 ) ;
#128 = EDGE_CURVE ( 'NONE', #83, #113, #156, .T. ) ;
#129 = CIRCLE ( 'NONE', #72, 2000.000000000000000 ) ;
#130 = ORIENTED_EDGE ( 'NONE', *, *, #95, .F. ) ;
#131 = ORIENTED_EDGE ( 'NONE', *, *, #145, .F. ) ;
#132 = MANIFOLD_SOLID_BREP ( 'Cut-Revolve1', #146 ) ;
#133 = FACE_OUTER_BOUND ( 'NONE', #53, .T. ) ;
#134 = CARTESIAN_POINT ( 'NONE',  ( 0.000000000000000000, 0.000000000000000000, 15.00000000000000000 ) ) ;
#135 = CIRCLE ( 'NONE', #110, 50.79999999999999716 ) ;
#136 = DIRECTION ( 'NONE',  ( -0.000000000000000000, -0.000000000000000000, -1.000000000000000000 ) ) ;
#137 = APPROVAL ( #171, 'UNSPECIFIED' ) ;
#138 = CARTESIAN_POINT ( 'NONE',  ( -50.79999999999999716, 0.000000000000000000, 0.000000000000000000 ) ) ;
#139 = PERSON_AND_ORGANIZATION ( #81, #199 ) ;
#140 = CC_DESIGN_APPROVAL ( #125, ( #87 ) ) ;
#141 = PERSON_AND_ORGANIZATION ( #81, #199 ) ;
#142 = PERSON_AND_ORGANIZATION ( #81, #199 ) ;
#143 = PERSON_AND_ORGANIZATION ( #81, #199 ) ;
#144 = CALENDAR_DATE ( 2021, 26, 2 ) ;
#145 = EDGE_CURVE ( 'NONE', #83, #174, #65, .T. ) ;
#146 = CLOSED_SHELL ( 'NONE', ( #64, #51, #158, #58, #166 ) ) ;
#147 = CC_DESIGN_SECURITY_CLASSIFICATION ( #87, ( #78 ) ) ;
#148 = AXIS2_PLACEMENT_3D ( 'NONE', #134, #39, #167 ) ;
#149 = PRODUCT ( '010-0835E_N-BK7_PCV_window', '010-0835E_N-BK7_PCV_window', '', ( #28 ) ) ;
#150 = ORIENTED_EDGE ( 'NONE', *, *, #169, .T. ) ;
#151 = ORIENTED_EDGE ( 'NONE', *, *, #128, .T. ) ;
#152 = DIRECTION ( 'NONE',  ( 1.000000000000000000, 0.000000000000000000, 0.000000000000000000 ) ) ;
#153 = PLANE ( 'NONE',  #163 ) ;
#154 = DIRECTION ( 'NONE',  ( 0.000000000000000000, -1.000000000000000000, -0.000000000000000000 ) ) ;
#155 = APPROVAL_PERSON_ORGANIZATION ( #63, #84, #122 ) ;
#156 = LINE ( 'NONE', #116, #180 ) ;
#157 = SECURITY_CLASSIFICATION_LEVEL ( 'unclassified' ) ;
#158 = ADVANCED_FACE ( 'NONE', ( #89 ), #198, .T. ) ;
#159 = DIRECTION ( 'NONE',  ( 0.000000000000000000, 0.000000000000000000, 1.000000000000000000 ) ) ;
#160 = COORDINATED_UNIVERSAL_TIME_OFFSET ( 2, 0, .AHEAD. ) ;
#161 = CC_DESIGN_DATE_AND_TIME_ASSIGNMENT ( #184, #60, ( #24 ) ) ;
#162 = DIRECTION ( 'NONE',  ( 1.224646799147353207E-16, -1.000000000000000000, 0.000000000000000000 ) ) ;
#163 = AXIS2_PLACEMENT_3D ( 'NONE', #57, #176, #38 ) ;
#164 = CARTESIAN_POINT ( 'NONE',  ( 2.428612866367529932E-13, 0.000000000000000000, 2014.354735908563043 ) ) ;
#165 = CARTESIAN_POINT ( 'NONE',  ( 50.79999999999999716, 6.221205739668553730E-15, 0.000000000000000000 ) ) ;
#166 = ADVANCED_FACE ( 'NONE', ( #27 ), #181, .F. ) ;
#167 = DIRECTION ( 'NONE',  ( -1.000000000000000000, 0.000000000000000000, 0.000000000000000000 ) ) ;
#168 = DIRECTION ( 'NONE',  ( 1.000000000000000000, 0.000000000000000000, 0.000000000000000000 ) ) ;
#169 = EDGE_CURVE ( 'NONE', #113, #67, #135, .T. ) ;
#170 = DATE_AND_TIME ( #126, #111 ) ;
#171 = APPROVAL_STATUS ( 'not_yet_approved' ) ;
#172 = ORIENTED_EDGE ( 'NONE', *, *, #192, .F. ) ;
#173 = ORIENTED_EDGE ( 'NONE', *, *, #32, .F. ) ;
#174 = VERTEX_POINT ( 'NONE', #85 ) ;
#175 = DIRECTION ( 'NONE',  ( 0.000000000000000000, 1.000000000000000000, -0.000000000000000000 ) ) ;
#176 = DIRECTION ( 'NONE',  ( 0.000000000000000000, 0.000000000000000000, 1.000000000000000000 ) ) ;
#177 = DESIGN_CONTEXT ( 'detailed design', #99, 'design' ) ;
#178 = LINE ( 'NONE', #120, #119 ) ;
#179 = CC_DESIGN_APPROVAL ( #137, ( #24 ) ) ;
#180 = VECTOR ( 'NONE', #35, 1000.000000000000000 ) ;
#181 = SPHERICAL_SURFACE ( 'NONE', #17, 2000.000000000000000 ) ;
#182 = APPROVAL_DATE_TIME ( #8, #125 ) ;
#183 = PERSON_AND_ORGANIZATION ( #81, #199 ) ;
#184 = DATE_AND_TIME ( #71, #18 ) ;
#185 = COORDINATED_UNIVERSAL_TIME_OFFSET ( 2, 0, .AHEAD. ) ;
#186 = CC_DESIGN_PERSON_AND_ORGANIZATION_ASSIGNMENT ( #143, #187, ( #78 ) ) ;
#187 = PERSON_AND_ORGANIZATION_ROLE ( 'creator' ) ;
#188 = ORIENTED_EDGE ( 'NONE', *, *, #169, .F. ) ;
#189 = AXIS2_PLACEMENT_3D ( 'NONE', #14, #117, #15 ) ;
#190 = EDGE_LOOP ( 'NONE', ( #131, #96, #173 ) ) ;
#191 = EDGE_LOOP ( 'NONE', ( #172, #112, #11 ) ) ;
#192 = EDGE_CURVE ( 'NONE', #83, #20, #129, .T. ) ;
#193 = ORIENTED_EDGE ( 'NONE', *, *, #55, .T. ) ;
#194 = UNCERTAINTY_MEASURE_WITH_UNIT (LENGTH_MEASURE( 1.000000000000000082E-05 ), #59, 'distance_accuracy_value', 'NONE');
#195 = SPHERICAL_SURFACE ( 'NONE', #30, 2000.000000000000000 ) ;
#196 = CARTESIAN_POINT ( 'NONE',  ( 2.428612866367529932E-13, 0.000000000000000000, 2014.354735908563043 ) ) ;
#197 = CC_DESIGN_DATE_AND_TIME_ASSIGNMENT ( #170, #77, ( #87 ) ) ;
#198 = CYLINDRICAL_SURFACE ( 'NONE', #189, 50.79999999999999716 ) ;
#199 = ORGANIZATION ( 'UNSPECIFIED', 'UNSPECIFIED', '' ) ;
#200 = DIRECTION ( 'NONE',  ( 0.000000000000000000, 0.000000000000000000, 1.000000000000000000 ) ) ;
#201 = DIRECTION ( 'NONE',  ( 0.000000000000000000, 0.000000000000000000, 1.000000000000000000 ) ) ;
ENDSEC;
END-ISO-10303-21;
