ISO-10303-21;
HEADER;
FILE_DESCRIPTION (( 'STEP AP203' ),
    '1' );
FILE_NAME ('010-0830E_N-BK7_PCV_window.STEP',
    '2021-02-26T06:24:45',
    ( '' ),
    ( '' ),
    'SwSTEP 2.0',
    'SolidWorks 2019',
    '' );
FILE_SCHEMA (( 'CONFIG_CONTROL_DESIGN' ));
ENDSEC;

DATA;
#1 = PERSON_AND_ORGANIZATION ( #134, #129 ) ;
#2 = CARTESIAN_POINT ( 'NONE',  ( -50.80000000000113403, 0.000000000000000000, 14.99999999999990230 ) ) ;
#3 = DIRECTION ( 'NONE',  ( -0.000000000000000000, -0.000000000000000000, -1.000000000000000000 ) ) ;
#4 = CARTESIAN_POINT ( 'NONE',  ( 1.804112415015879378E-13, 0.000000000000000000, 1514.139539869454438 ) ) ;
#5 = CC_DESIGN_APPROVAL ( #154, ( #82 ) ) ;
#6 = LINE ( 'NONE', #92, #165 ) ;
#7 = CC_DESIGN_PERSON_AND_ORGANIZATION_ASSIGNMENT ( #194, #62, ( #82 ) ) ;
#8 = EDGE_CURVE ( 'NONE', #17, #169, #147, .T. ) ;
#9 = CIRCLE ( 'NONE', #142, 1500.000000000000000 ) ;
#10 = PERSON_AND_ORGANIZATION_ROLE ( 'design_supplier' ) ;
#11 = CARTESIAN_POINT ( 'NONE',  ( 1.804112415015879378E-13, 0.000000000000000000, 1514.139539869454438 ) ) ;
#12 = PERSON_AND_ORGANIZATION ( #134, #129 ) ;
#13 = APPROVAL_ROLE ( '' ) ;
#14 = VECTOR ( 'NONE', #119, 1000.000000000000000 ) ;
#15 = EDGE_CURVE ( 'NONE', #140, #169, #9, .T. ) ;
#16 = EDGE_LOOP ( 'NONE', ( #139, #67 ) ) ;
#17 = VERTEX_POINT ( 'NONE', #95 ) ;
#18 = CC_DESIGN_DATE_AND_TIME_ASSIGNMENT ( #28, #29, ( #126 ) ) ;
#19 = PERSON_AND_ORGANIZATION ( #134, #129 ) ;
#20 = DIRECTION ( 'NONE',  ( 0.000000000000000000, 0.000000000000000000, 1.000000000000000000 ) ) ;
#21 = DIRECTION ( 'NONE',  ( -0.000000000000000000, -0.000000000000000000, -1.000000000000000000 ) ) ;
#22 = CARTESIAN_POINT ( 'NONE',  ( 0.000000000000000000, 0.000000000000000000, 15.00000000000000000 ) ) ;
#23 = ADVANCED_BREP_SHAPE_REPRESENTATION ( '010-0830E_N-BK7_PCV_window', ( #161, #190 ), #72 ) ;
#24 = SPHERICAL_SURFACE ( 'NONE', #170, 1500.000000000000000 ) ;
#25 =( NAMED_UNIT ( * ) SI_UNIT ( $, .STERADIAN. ) SOLID_ANGLE_UNIT ( ) );
#26 = LOCAL_TIME ( 8, 24, 45.00000000000000000, #83 ) ;
#27 = CARTESIAN_POINT ( 'NONE',  ( 0.000000000000000000, 0.000000000000000000, 0.000000000000000000 ) ) ;
#28 = DATE_AND_TIME ( #193, #37 ) ;
#29 = DATE_TIME_ROLE ( 'classification_date' ) ;
#30 = APPROVAL_DATE_TIME ( #195, #48 ) ;
#31 = EDGE_LOOP ( 'NONE', ( #199, #97, #35 ) ) ;
#32 = ORIENTED_EDGE ( 'NONE', *, *, #179, .T. ) ;
#33 = CC_DESIGN_PERSON_AND_ORGANIZATION_ASSIGNMENT ( #68, #130, ( #122 ) ) ;
#34 = AXIS2_PLACEMENT_3D ( 'NONE', #27, #144, #146 ) ;
#35 = ORIENTED_EDGE ( 'NONE', *, *, #8, .F. ) ;
#36 = MECHANICAL_CONTEXT ( 'NONE', #127, 'mechanical' ) ;
#37 = LOCAL_TIME ( 8, 24, 45.00000000000000000, #66 ) ;
#38 = SPHERICAL_SURFACE ( 'NONE', #120, 1500.000000000000000 ) ;
#39 = DIRECTION ( 'NONE',  ( 0.000000000000000000, 0.000000000000000000, 1.000000000000000000 ) ) ;
#40 = EDGE_CURVE ( 'NONE', #183, #157, #152, .T. ) ;
#41 = APPROVAL_PERSON_ORGANIZATION ( #19, #191, #185 ) ;
#42 = LINE ( 'NONE', #189, #14 ) ;
#43 = CC_DESIGN_APPROVAL ( #191, ( #124 ) ) ;
#44 = APPROVAL_PERSON_ORGANIZATION ( #135, #48, #13 ) ;
#45 = CALENDAR_DATE ( 2021, 26, 2 ) ;
#46 = APPROVAL_STATUS ( 'not_yet_approved' ) ;
#47 = DATE_TIME_ROLE ( 'creation_date' ) ;
#48 = APPROVAL ( #46, 'UNSPECIFIED' ) ;
#49 = APPROVAL_DATE_TIME ( #151, #154 ) ;
#50 = ADVANCED_FACE ( 'NONE', ( #136 ), #164, .F. ) ;
#51 = ORIENTED_EDGE ( 'NONE', *, *, #40, .T. ) ;
#52 = CARTESIAN_POINT ( 'NONE',  ( 0.000000000000000000, 0.000000000000000000, 0.000000000000000000 ) ) ;
#53 = DIRECTION ( 'NONE',  ( 1.000000000000000000, 0.000000000000000000, 0.000000000000000000 ) ) ;
#54 = CIRCLE ( 'NONE', #58, 50.80000000000131877 ) ;
#55 = CARTESIAN_POINT ( 'NONE',  ( 1.804112415015879378E-13, 0.000000000000000000, 14.99999999999990230 ) ) ;
#56 = EDGE_CURVE ( 'NONE', #17, #140, #54, .T. ) ;
#57 = DIRECTION ( 'NONE',  ( -0.000000000000000000, -0.000000000000000000, -1.000000000000000000 ) ) ;
#58 = AXIS2_PLACEMENT_3D ( 'NONE', #55, #3, #187 ) ;
#59 = CARTESIAN_POINT ( 'NONE',  ( -50.79999999999999716, 0.000000000000000000, 0.000000000000000000 ) ) ;
#60 = AXIS2_PLACEMENT_3D ( 'NONE', #22, #159, #84 ) ;
#61 = COORDINATED_UNIVERSAL_TIME_OFFSET ( 2, 0, .AHEAD. ) ;
#62 = PERSON_AND_ORGANIZATION_ROLE ( 'creator' ) ;
#63 = PERSON_AND_ORGANIZATION ( #134, #129 ) ;
#64 = CIRCLE ( 'NONE', #181, 50.79999999999999716 ) ;
#65 = DIRECTION ( 'NONE',  ( 0.000000000000000000, 0.000000000000000000, 1.000000000000000000 ) ) ;
#66 = COORDINATED_UNIVERSAL_TIME_OFFSET ( 2, 0, .AHEAD. ) ;
#67 = ORIENTED_EDGE ( 'NONE', *, *, #88, .F. ) ;
#68 = PERSON_AND_ORGANIZATION ( #134, #129 ) ;
#69 = PERSON_AND_ORGANIZATION_ROLE ( 'creator' ) ;
#70 = DIRECTION ( 'NONE',  ( 1.000000000000000000, 0.000000000000000000, 0.000000000000000000 ) ) ;
#71 = CYLINDRICAL_SURFACE ( 'NONE', #90, 50.79999999999999716 ) ;
#72 =( GEOMETRIC_REPRESENTATION_CONTEXT ( 3 ) GLOBAL_UNCERTAINTY_ASSIGNED_CONTEXT ( ( #186 ) ) GLOBAL_UNIT_ASSIGNED_CONTEXT ( ( #75, #150, #25 ) ) REPRESENTATION_CONTEXT ( 'NONE', 'WORKASPACE' ) );
#73 = EDGE_CURVE ( 'NONE', #140, #17, #94, .T. ) ;
#74 = APPLICATION_CONTEXT ( 'configuration controlled 3d designs of mechanical parts and assemblies' ) ;
#75 =( LENGTH_UNIT ( ) NAMED_UNIT ( * ) SI_UNIT ( .MILLI., .METRE. ) );
#76 = DIRECTION ( 'NONE',  ( 1.000000000000000000, 0.000000000000000000, 0.000000000000000000 ) ) ;
#77 = APPROVAL_STATUS ( 'not_yet_approved' ) ;
#78 = CARTESIAN_POINT ( 'NONE',  ( 0.000000000000000000, 0.000000000000000000, 0.000000000000000000 ) ) ;
#79 = LOCAL_TIME ( 8, 24, 45.00000000000000000, #100 ) ;
#80 = CALENDAR_DATE ( 2021, 26, 2 ) ;
#81 = EDGE_LOOP ( 'NONE', ( #168, #197, #172 ) ) ;
#82 = PRODUCT_DEFINITION_FORMATION_WITH_SPECIFIED_SOURCE ( 'ANY', '', #122, .NOT_KNOWN. ) ;
#83 = COORDINATED_UNIVERSAL_TIME_OFFSET ( 2, 0, .AHEAD. ) ;
#84 = DIRECTION ( 'NONE',  ( -1.000000000000000000, 0.000000000000000000, 0.000000000000000000 ) ) ;
#85 = CC_DESIGN_PERSON_AND_ORGANIZATION_ASSIGNMENT ( #109, #111, ( #126 ) ) ;
#86 = DESIGN_CONTEXT ( 'detailed design', #74, 'design' ) ;
#87 = FACE_OUTER_BOUND ( 'NONE', #81, .T. ) ;
#88 = EDGE_CURVE ( 'NONE', #157, #183, #64, .T. ) ;
#89 = CARTESIAN_POINT ( 'NONE',  ( 0.000000000000000000, 0.000000000000000000, 0.000000000000000000 ) ) ;
#90 = AXIS2_PLACEMENT_3D ( 'NONE', #133, #102, #160 ) ;
#91 = CARTESIAN_POINT ( 'NONE',  ( 50.79999999999999716, 6.221205739668553730E-15, 0.000000000000000000 ) ) ;
#92 = CARTESIAN_POINT ( 'NONE',  ( -50.79999999999999716, 0.000000000000000000, 15.00000000000000000 ) ) ;
#93 = PRODUCT_DEFINITION_SHAPE ( 'NONE', 'NONE',  #124 ) ;
#94 = CIRCLE ( 'NONE', #178, 50.80000000000131877 ) ;
#95 = CARTESIAN_POINT ( 'NONE',  ( 50.80000000000149640, 6.221205739668737535E-15, 14.99999999999990230 ) ) ;
#96 = SHAPE_DEFINITION_REPRESENTATION ( #93, #23 ) ;
#97 = ORIENTED_EDGE ( 'NONE', *, *, #15, .T. ) ;
#98 = EDGE_LOOP ( 'NONE', ( #182, #32, #171, #99 ) ) ;
#99 = ORIENTED_EDGE ( 'NONE', *, *, #175, .F. ) ;
#100 = COORDINATED_UNIVERSAL_TIME_OFFSET ( 2, 0, .AHEAD. ) ;
#101 = CARTESIAN_POINT ( 'NONE',  ( 1.804112415015879378E-13, 0.000000000000000000, 1514.139539869454438 ) ) ;
#102 = DIRECTION ( 'NONE',  ( -0.000000000000000000, -0.000000000000000000, -1.000000000000000000 ) ) ;
#103 = FACE_OUTER_BOUND ( 'NONE', #31, .T. ) ;
#104 = PRODUCT_RELATED_PRODUCT_CATEGORY ( 'detail', '', ( #122 ) ) ;
#105 = AXIS2_PLACEMENT_3D ( 'NONE', #78, #65, #153 ) ;
#106 = ADVANCED_FACE ( 'NONE', ( #132 ), #71, .T. ) ;
#107 = APPROVAL_PERSON_ORGANIZATION ( #12, #154, #167 ) ;
#108 = DIRECTION ( 'NONE',  ( 1.224646799147353207E-16, -1.000000000000000000, 0.000000000000000000 ) ) ;
#109 = PERSON_AND_ORGANIZATION ( #134, #129 ) ;
#110 = DIRECTION ( 'NONE',  ( 0.000000000000000000, 1.000000000000000000, -0.000000000000000000 ) ) ;
#111 = PERSON_AND_ORGANIZATION_ROLE ( 'classification_officer' ) ;
#112 = ORIENTED_EDGE ( 'NONE', *, *, #179, .F. ) ;
#113 = CLOSED_SHELL ( 'NONE', ( #198, #148, #106, #50, #155 ) ) ;
#114 = LOCAL_TIME ( 8, 24, 45.00000000000000000, #61 ) ;
#115 = ORIENTED_EDGE ( 'NONE', *, *, #56, .T. ) ;
#116 = EDGE_LOOP ( 'NONE', ( #112, #115, #196, #51 ) ) ;
#117 = APPROVAL_DATE_TIME ( #174, #191 ) ;
#118 = CYLINDRICAL_SURFACE ( 'NONE', #60, 50.79999999999999716 ) ;
#119 = DIRECTION ( 'NONE',  ( -0.000000000000000000, -0.000000000000000000, -1.000000000000000000 ) ) ;
#120 = AXIS2_PLACEMENT_3D ( 'NONE', #101, #177, #163 ) ;
#121 = DIRECTION ( 'NONE',  ( 0.000000000000000000, -1.000000000000000000, -0.000000000000000000 ) ) ;
#122 = PRODUCT ( '010-0830E_N-BK7_PCV_window', '010-0830E_N-BK7_PCV_window', '', ( #36 ) ) ;
#123 = CC_DESIGN_PERSON_AND_ORGANIZATION_ASSIGNMENT ( #63, #10, ( #82 ) ) ;
#124 = PRODUCT_DEFINITION ( 'UNKNOWN', '', #82, #86 ) ;
#125 = SECURITY_CLASSIFICATION_LEVEL ( 'unclassified' ) ;
#126 = SECURITY_CLASSIFICATION ( '', '', #125 ) ;
#127 = APPLICATION_CONTEXT ( 'configuration controlled 3d designs of mechanical parts and assemblies' ) ;
#128 = CC_DESIGN_DATE_AND_TIME_ASSIGNMENT ( #137, #47, ( #124 ) ) ;
#129 = ORGANIZATION ( 'UNSPECIFIED', 'UNSPECIFIED', '' ) ;
#130 = PERSON_AND_ORGANIZATION_ROLE ( 'design_owner' ) ;
#131 = CALENDAR_DATE ( 2021, 26, 2 ) ;
#132 = FACE_OUTER_BOUND ( 'NONE', #116, .T. ) ;
#133 = CARTESIAN_POINT ( 'NONE',  ( 0.000000000000000000, 0.000000000000000000, 15.00000000000000000 ) ) ;
#134 = PERSON ( 'UNSPECIFIED', 'UNSPECIFIED', 'UNSPECIFIED', ('UNSPECIFIED'), ('UNSPECIFIED'), ('UNSPECIFIED') ) ;
#135 = PERSON_AND_ORGANIZATION ( #134, #129 ) ;
#136 = FACE_OUTER_BOUND ( 'NONE', #16, .T. ) ;
#137 = DATE_AND_TIME ( #131, #79 ) ;
#138 = DIRECTION ( 'NONE',  ( 0.000000000000000000, 0.000000000000000000, 1.000000000000000000 ) ) ;
#139 = ORIENTED_EDGE ( 'NONE', *, *, #40, .F. ) ;
#140 = VERTEX_POINT ( 'NONE', #2 ) ;
#141 = APPLICATION_PROTOCOL_DEFINITION ( 'international standard', 'config_control_design', 1994, #74 ) ;
#142 = AXIS2_PLACEMENT_3D ( 'NONE', #11, #108, #166 ) ;
#143 = CALENDAR_DATE ( 2021, 26, 2 ) ;
#144 = DIRECTION ( 'NONE',  ( 0.000000000000000000, 0.000000000000000000, 1.000000000000000000 ) ) ;
#145 = APPROVAL_STATUS ( 'not_yet_approved' ) ;
#146 = DIRECTION ( 'NONE',  ( 1.000000000000000000, 0.000000000000000000, -0.000000000000000000 ) ) ;
#147 = CIRCLE ( 'NONE', #200, 1499.999999999999773 ) ;
#148 = ADVANCED_FACE ( 'NONE', ( #188 ), #118, .T. ) ;
#149 = CARTESIAN_POINT ( 'NONE',  ( 2.722597514376393999E-13, 0.000000000000000000, 14.13953986945437613 ) ) ;
#150 =( NAMED_UNIT ( * ) PLANE_ANGLE_UNIT ( ) SI_UNIT ( $, .RADIAN. ) );
#151 = DATE_AND_TIME ( #80, #156 ) ;
#152 = CIRCLE ( 'NONE', #105, 50.79999999999999716 ) ;
#153 = DIRECTION ( 'NONE',  ( 1.000000000000000000, 0.000000000000000000, 0.000000000000000000 ) ) ;
#154 = APPROVAL ( #77, 'UNSPECIFIED' ) ;
#155 = ADVANCED_FACE ( 'NONE', ( #87 ), #38, .F. ) ;
#156 = LOCAL_TIME ( 8, 24, 45.00000000000000000, #192 ) ;
#157 = VERTEX_POINT ( 'NONE', #91 ) ;
#158 = CC_DESIGN_SECURITY_CLASSIFICATION ( #126, ( #82 ) ) ;
#159 = DIRECTION ( 'NONE',  ( -0.000000000000000000, -0.000000000000000000, -1.000000000000000000 ) ) ;
#160 = DIRECTION ( 'NONE',  ( -1.000000000000000000, 0.000000000000000000, 0.000000000000000000 ) ) ;
#161 = MANIFOLD_SOLID_BREP ( 'Cut-Revolve1', #113 ) ;
#162 = CC_DESIGN_PERSON_AND_ORGANIZATION_ASSIGNMENT ( #1, #69, ( #124 ) ) ;
#163 = DIRECTION ( 'NONE',  ( 1.000000000000000000, 0.000000000000000000, 0.000000000000000000 ) ) ;
#164 = PLANE ( 'NONE',  #34 ) ;
#165 = VECTOR ( 'NONE', #57, 1000.000000000000000 ) ;
#166 = DIRECTION ( 'NONE',  ( 1.000000000000000000, 1.224646799147353207E-16, 0.000000000000000000 ) ) ;
#167 = APPROVAL_ROLE ( '' ) ;
#168 = ORIENTED_EDGE ( 'NONE', *, *, #15, .F. ) ;
#169 = VERTEX_POINT ( 'NONE', #149 ) ;
#170 = AXIS2_PLACEMENT_3D ( 'NONE', #4, #121, #76 ) ;
#171 = ORIENTED_EDGE ( 'NONE', *, *, #88, .T. ) ;
#172 = ORIENTED_EDGE ( 'NONE', *, *, #8, .T. ) ;
#173 = APPLICATION_PROTOCOL_DEFINITION ( 'international standard', 'config_control_design', 1994, #127 ) ;
#174 = DATE_AND_TIME ( #143, #26 ) ;
#175 = EDGE_CURVE ( 'NONE', #140, #183, #6, .T. ) ;
#176 = CARTESIAN_POINT ( 'NONE',  ( 1.804112415015879378E-13, 0.000000000000000000, 14.99999999999990230 ) ) ;
#177 = DIRECTION ( 'NONE',  ( 0.000000000000000000, -1.000000000000000000, -0.000000000000000000 ) ) ;
#178 = AXIS2_PLACEMENT_3D ( 'NONE', #176, #21, #70 ) ;
#179 = EDGE_CURVE ( 'NONE', #17, #157, #42, .T. ) ;
#180 = CARTESIAN_POINT ( 'NONE',  ( 1.804112415015879378E-13, 0.000000000000000000, 1514.139539869454438 ) ) ;
#181 = AXIS2_PLACEMENT_3D ( 'NONE', #89, #39, #53 ) ;
#182 = ORIENTED_EDGE ( 'NONE', *, *, #73, .T. ) ;
#183 = VERTEX_POINT ( 'NONE', #59 ) ;
#184 = DIRECTION ( 'NONE',  ( 1.000000000000000000, 0.000000000000000000, 0.000000000000000000 ) ) ;
#185 = APPROVAL_ROLE ( '' ) ;
#186 = UNCERTAINTY_MEASURE_WITH_UNIT (LENGTH_MEASURE( 1.000000000000000082E-05 ), #75, 'distance_accuracy_value', 'NONE');
#187 = DIRECTION ( 'NONE',  ( 1.000000000000000000, 0.000000000000000000, 0.000000000000000000 ) ) ;
#188 = FACE_OUTER_BOUND ( 'NONE', #98, .T. ) ;
#189 = CARTESIAN_POINT ( 'NONE',  ( 50.79999999999999716, 6.221205739668553730E-15, 15.00000000000000000 ) ) ;
#190 = AXIS2_PLACEMENT_3D ( 'NONE', #52, #20, #184 ) ;
#191 = APPROVAL ( #145, 'UNSPECIFIED' ) ;
#192 = COORDINATED_UNIVERSAL_TIME_OFFSET ( 2, 0, .AHEAD. ) ;
#193 = CALENDAR_DATE ( 2021, 26, 2 ) ;
#194 = PERSON_AND_ORGANIZATION ( #134, #129 ) ;
#195 = DATE_AND_TIME ( #45, #114 ) ;
#196 = ORIENTED_EDGE ( 'NONE', *, *, #175, .T. ) ;
#197 = ORIENTED_EDGE ( 'NONE', *, *, #56, .F. ) ;
#198 = ADVANCED_FACE ( 'NONE', ( #103 ), #24, .F. ) ;
#199 = ORIENTED_EDGE ( 'NONE', *, *, #73, .F. ) ;
#200 = AXIS2_PLACEMENT_3D ( 'NONE', #180, #110, #138 ) ;
#201 = CC_DESIGN_APPROVAL ( #48, ( #126 ) ) ;
ENDSEC;
END-ISO-10303-21;
