ISO-10303-21;
HEADER;
FILE_DESCRIPTION (( 'STEP AP203' ),
    '1' );
FILE_NAME ('010-0825E_N-BK7_PCV_window.STEP',
    '2021-02-26T06:24:19',
    ( '' ),
    ( '' ),
    'SwSTEP 2.0',
    'SolidWorks 2019',
    '' );
FILE_SCHEMA (( 'CONFIG_CONTROL_DESIGN' ));
ENDSEC;

DATA;
#1 = PERSON_AND_ORGANIZATION ( #57, #41 ) ;
#2 = AXIS2_PLACEMENT_3D ( 'NONE', #117, #115, #10 ) ;
#3 = APPROVAL_PERSON_ORGANIZATION ( #1, #30, #140 ) ;
#4 = PERSON_AND_ORGANIZATION_ROLE ( 'design_supplier' ) ;
#5 = VERTEX_POINT ( 'NONE', #16 ) ;
#6 = ORIENTED_EDGE ( 'NONE', *, *, #119, .F. ) ;
#7 = AXIS2_PLACEMENT_3D ( 'NONE', #147, #159, #9 ) ;
#8 = CIRCLE ( 'NONE', #83, 50.80000000000131877 ) ;
#9 = DIRECTION ( 'NONE',  ( 0.000000000000000000, 0.000000000000000000, 1.000000000000000000 ) ) ;
#10 = DIRECTION ( 'NONE',  ( 1.000000000000000000, 0.000000000000000000, 0.000000000000000000 ) ) ;
#11 = PLANE ( 'NONE',  #128 ) ;
#12 = CC_DESIGN_PERSON_AND_ORGANIZATION_ASSIGNMENT ( #108, #93, ( #14 ) ) ;
#13 = CALENDAR_DATE ( 2021, 26, 2 ) ;
#14 = SECURITY_CLASSIFICATION ( '', '', #70 ) ;
#15 = PERSON_AND_ORGANIZATION ( #57, #41 ) ;
#16 = CARTESIAN_POINT ( 'NONE',  ( -50.79999999999999716, 0.000000000000000000, 0.000000000000000000 ) ) ;
#17 = CARTESIAN_POINT ( 'NONE',  ( 50.80000000000143956, 6.221205739668731224E-15, 15.00000000000001421 ) ) ;
#18 = LOCAL_TIME ( 8, 24, 19.00000000000000000, #60 ) ;
#19 = VERTEX_POINT ( 'NONE', #32 ) ;
#20 = ADVANCED_FACE ( 'NONE', ( #77 ), #21, .T. ) ;
#21 = CYLINDRICAL_SURFACE ( 'NONE', #52, 50.79999999999999716 ) ;
#22 = EDGE_CURVE ( 'NONE', #5, #19, #180, .T. ) ;
#23 = DIRECTION ( 'NONE',  ( 0.000000000000000000, 0.000000000000000000, 1.000000000000000000 ) ) ;
#24 = CARTESIAN_POINT ( 'NONE',  ( 0.000000000000000000, 0.000000000000000000, 0.000000000000000000 ) ) ;
#25 = PERSON_AND_ORGANIZATION ( #57, #41 ) ;
#26 = AXIS2_PLACEMENT_3D ( 'NONE', #31, #43, #46 ) ;
#27 = DATE_AND_TIME ( #144, #72 ) ;
#28 = DATE_AND_TIME ( #13, #18 ) ;
#29 = ORIENTED_EDGE ( 'NONE', *, *, #22, .F. ) ;
#30 = APPROVAL ( #172, 'UNSPECIFIED' ) ;
#31 = CARTESIAN_POINT ( 'NONE',  ( 1.249000902703301108E-13, 0.000000000000000000, 1013.708846461269559 ) ) ;
#32 = CARTESIAN_POINT ( 'NONE',  ( 50.79999999999999716, 6.221205739668553730E-15, 0.000000000000000000 ) ) ;
#33 = CC_DESIGN_APPROVAL ( #30, ( #137 ) ) ;
#34 =( LENGTH_UNIT ( ) NAMED_UNIT ( * ) SI_UNIT ( .MILLI., .METRE. ) );
#35 =( NAMED_UNIT ( * ) SI_UNIT ( $, .STERADIAN. ) SOLID_ANGLE_UNIT ( ) );
#36 = PERSON_AND_ORGANIZATION ( #57, #41 ) ;
#37 = ORIENTED_EDGE ( 'NONE', *, *, #176, .F. ) ;
#38 = APPROVAL ( #94, 'UNSPECIFIED' ) ;
#39 = PERSON_AND_ORGANIZATION_ROLE ( 'design_owner' ) ;
#40 = APPROVAL_DATE_TIME ( #86, #84 ) ;
#41 = ORGANIZATION ( 'UNSPECIFIED', 'UNSPECIFIED', '' ) ;
#42 = ADVANCED_FACE ( 'NONE', ( #130 ), #188, .F. ) ;
#43 = DIRECTION ( 'NONE',  ( 1.224646799147353207E-16, -1.000000000000000000, 0.000000000000000000 ) ) ;
#44 = CLOSED_SHELL ( 'NONE', ( #75, #20, #155, #199, #42 ) ) ;
#45 = PRODUCT_DEFINITION_SHAPE ( 'NONE', 'NONE',  #55 ) ;
#46 = DIRECTION ( 'NONE',  ( 1.000000000000000000, 1.224646799147353207E-16, 0.000000000000000000 ) ) ;
#47 = ORIENTED_EDGE ( 'NONE', *, *, #22, .T. ) ;
#48 =( NAMED_UNIT ( * ) PLANE_ANGLE_UNIT ( ) SI_UNIT ( $, .RADIAN. ) );
#49 = PERSON_AND_ORGANIZATION ( #57, #41 ) ;
#50 = ORIENTED_EDGE ( 'NONE', *, *, #187, .F. ) ;
#51 = CC_DESIGN_PERSON_AND_ORGANIZATION_ASSIGNMENT ( #25, #4, ( #137 ) ) ;
#52 = AXIS2_PLACEMENT_3D ( 'NONE', #145, #81, #82 ) ;
#53 = AXIS2_PLACEMENT_3D ( 'NONE', #24, #23, #69 ) ;
#54 = DIRECTION ( 'NONE',  ( -0.000000000000000000, -0.000000000000000000, -1.000000000000000000 ) ) ;
#55 = PRODUCT_DEFINITION ( 'UNKNOWN', '', #137, #194 ) ;
#56 = MECHANICAL_CONTEXT ( 'NONE', #73, 'mechanical' ) ;
#57 = PERSON ( 'UNSPECIFIED', 'UNSPECIFIED', 'UNSPECIFIED', ('UNSPECIFIED'), ('UNSPECIFIED'), ('UNSPECIFIED') ) ;
#58 = COORDINATED_UNIVERSAL_TIME_OFFSET ( 2, 0, .AHEAD. ) ;
#59 = CALENDAR_DATE ( 2021, 26, 2 ) ;
#60 = COORDINATED_UNIVERSAL_TIME_OFFSET ( 2, 0, .AHEAD. ) ;
#61 = LOCAL_TIME ( 8, 24, 19.00000000000000000, #91 ) ;
#62 = MANIFOLD_SOLID_BREP ( 'Cut-Revolve1', #44 ) ;
#63 = CARTESIAN_POINT ( 'NONE',  ( 1.249000902703301108E-13, 0.000000000000000000, 1013.708846461269559 ) ) ;
#64 = DIRECTION ( 'NONE',  ( 0.000000000000000000, -1.000000000000000000, -0.000000000000000000 ) ) ;
#65 = CC_DESIGN_DATE_AND_TIME_ASSIGNMENT ( #28, #186, ( #55 ) ) ;
#66 = FACE_OUTER_BOUND ( 'NONE', #184, .T. ) ;
#67 = APPROVAL_ROLE ( '' ) ;
#68 = CC_DESIGN_PERSON_AND_ORGANIZATION_ASSIGNMENT ( #15, #156, ( #55 ) ) ;
#69 = DIRECTION ( 'NONE',  ( 1.000000000000000000, 0.000000000000000000, 0.000000000000000000 ) ) ;
#70 = SECURITY_CLASSIFICATION_LEVEL ( 'unclassified' ) ;
#71 = CIRCLE ( 'NONE', #26, 999.9999999999998863 ) ;
#72 = LOCAL_TIME ( 8, 24, 19.00000000000000000, #58 ) ;
#73 = APPLICATION_CONTEXT ( 'configuration controlled 3d designs of mechanical parts and assemblies' ) ;
#74 = DATE_TIME_ROLE ( 'classification_date' ) ;
#75 = ADVANCED_FACE ( 'NONE', ( #66 ), #113, .F. ) ;
#76 = PERSON_AND_ORGANIZATION_ROLE ( 'creator' ) ;
#77 = FACE_OUTER_BOUND ( 'NONE', #99, .T. ) ;
#78 = PRODUCT ( '010-0825E_N-BK7_PCV_window', '010-0825E_N-BK7_PCV_window', '', ( #56 ) ) ;
#79 = DIRECTION ( 'NONE',  ( -0.000000000000000000, -0.000000000000000000, -1.000000000000000000 ) ) ;
#80 = CIRCLE ( 'NONE', #53, 50.79999999999999716 ) ;
#81 = DIRECTION ( 'NONE',  ( -0.000000000000000000, -0.000000000000000000, -1.000000000000000000 ) ) ;
#82 = DIRECTION ( 'NONE',  ( -1.000000000000000000, 0.000000000000000000, 0.000000000000000000 ) ) ;
#83 = AXIS2_PLACEMENT_3D ( 'NONE', #102, #104, #88 ) ;
#84 = APPROVAL ( #181, 'UNSPECIFIED' ) ;
#85 = LOCAL_TIME ( 8, 24, 19.00000000000000000, #152 ) ;
#86 = DATE_AND_TIME ( #121, #85 ) ;
#87 = ORIENTED_EDGE ( 'NONE', *, *, #119, .T. ) ;
#88 = DIRECTION ( 'NONE',  ( 1.000000000000000000, 0.000000000000000000, 0.000000000000000000 ) ) ;
#89 = CARTESIAN_POINT ( 'NONE',  ( 0.000000000000000000, 0.000000000000000000, 0.000000000000000000 ) ) ;
#90 = SHAPE_DEFINITION_REPRESENTATION ( #45, #166 ) ;
#91 = COORDINATED_UNIVERSAL_TIME_OFFSET ( 2, 0, .AHEAD. ) ;
#92 = EDGE_CURVE ( 'NONE', #190, #105, #71, .T. ) ;
#93 = PERSON_AND_ORGANIZATION_ROLE ( 'classification_officer' ) ;
#94 = APPROVAL_STATUS ( 'not_yet_approved' ) ;
#95 = CARTESIAN_POINT ( 'NONE',  ( 1.861324302276977606E-13, 0.000000000000000000, 13.70884646126968676 ) ) ;
#96 = CARTESIAN_POINT ( 'NONE',  ( -50.79999999999999716, 0.000000000000000000, 15.00000000000000000 ) ) ;
#97 = CARTESIAN_POINT ( 'NONE',  ( -50.80000000000119087, 0.000000000000000000, 15.00000000000001421 ) ) ;
#98 = LINE ( 'NONE', #135, #112 ) ;
#99 = EDGE_LOOP ( 'NONE', ( #103, #192, #182, #106 ) ) ;
#100 = UNCERTAINTY_MEASURE_WITH_UNIT (LENGTH_MEASURE( 1.000000000000000082E-05 ), #34, 'distance_accuracy_value', 'NONE');
#101 = AXIS2_PLACEMENT_3D ( 'NONE', #198, #125, #200 ) ;
#102 = CARTESIAN_POINT ( 'NONE',  ( 1.249000902703301108E-13, 0.000000000000000000, 15.00000000000001421 ) ) ;
#103 = ORIENTED_EDGE ( 'NONE', *, *, #176, .T. ) ;
#104 = DIRECTION ( 'NONE',  ( -0.000000000000000000, -0.000000000000000000, -1.000000000000000000 ) ) ;
#105 = VERTEX_POINT ( 'NONE', #95 ) ;
#106 = ORIENTED_EDGE ( 'NONE', *, *, #139, .F. ) ;
#107 = CALENDAR_DATE ( 2021, 26, 2 ) ;
#108 = PERSON_AND_ORGANIZATION ( #57, #41 ) ;
#109 = PERSON_AND_ORGANIZATION ( #57, #41 ) ;
#110 = AXIS2_PLACEMENT_3D ( 'NONE', #138, #136, #196 ) ;
#111 = DATE_AND_TIME ( #59, #61 ) ;
#112 = VECTOR ( 'NONE', #178, 1000.000000000000000 ) ;
#113 = SPHERICAL_SURFACE ( 'NONE', #162, 999.9999999999998863 ) ;
#114 = CC_DESIGN_APPROVAL ( #38, ( #14 ) ) ;
#115 = DIRECTION ( 'NONE',  ( 0.000000000000000000, 0.000000000000000000, 1.000000000000000000 ) ) ;
#116 = LINE ( 'NONE', #96, #171 ) ;
#117 = CARTESIAN_POINT ( 'NONE',  ( 0.000000000000000000, 0.000000000000000000, 0.000000000000000000 ) ) ;
#118 = CC_DESIGN_SECURITY_CLASSIFICATION ( #14, ( #137 ) ) ;
#119 = EDGE_CURVE ( 'NONE', #124, #105, #123, .T. ) ;
#120 = ORIENTED_EDGE ( 'NONE', *, *, #187, .T. ) ;
#121 = CALENDAR_DATE ( 2021, 26, 2 ) ;
#122 = AXIS2_PLACEMENT_3D ( 'NONE', #167, #54, #168 ) ;
#123 = CIRCLE ( 'NONE', #7, 999.9999999999997726 ) ;
#124 = VERTEX_POINT ( 'NONE', #17 ) ;
#125 = DIRECTION ( 'NONE',  ( -0.000000000000000000, -0.000000000000000000, -1.000000000000000000 ) ) ;
#126 = APPROVAL_DATE_TIME ( #111, #38 ) ;
#127 = APPLICATION_CONTEXT ( 'configuration controlled 3d designs of mechanical parts and assemblies' ) ;
#128 = AXIS2_PLACEMENT_3D ( 'NONE', #89, #195, #163 ) ;
#129 = CC_DESIGN_PERSON_AND_ORGANIZATION_ASSIGNMENT ( #36, #39, ( #78 ) ) ;
#130 = FACE_OUTER_BOUND ( 'NONE', #193, .T. ) ;
#131 = APPROVAL_PERSON_ORGANIZATION ( #109, #38, #142 ) ;
#132 = DIRECTION ( 'NONE',  ( 1.000000000000000000, 0.000000000000000000, 0.000000000000000000 ) ) ;
#133 = ORIENTED_EDGE ( 'NONE', *, *, #173, .F. ) ;
#134 = CC_DESIGN_APPROVAL ( #84, ( #55 ) ) ;
#135 = CARTESIAN_POINT ( 'NONE',  ( 50.79999999999999716, 6.221205739668553730E-15, 15.00000000000000000 ) ) ;
#136 = DIRECTION ( 'NONE',  ( 0.000000000000000000, 0.000000000000000000, 1.000000000000000000 ) ) ;
#137 = PRODUCT_DEFINITION_FORMATION_WITH_SPECIFIED_SOURCE ( 'ANY', '', #78, .NOT_KNOWN. ) ;
#138 = CARTESIAN_POINT ( 'NONE',  ( 0.000000000000000000, 0.000000000000000000, 0.000000000000000000 ) ) ;
#139 = EDGE_CURVE ( 'NONE', #190, #5, #116, .T. ) ;
#140 = APPROVAL_ROLE ( '' ) ;
#141 = DATE_AND_TIME ( #107, #165 ) ;
#142 = APPROVAL_ROLE ( '' ) ;
#143 = PRODUCT_RELATED_PRODUCT_CATEGORY ( 'detail', '', ( #78 ) ) ;
#144 = CALENDAR_DATE ( 2021, 26, 2 ) ;
#145 = CARTESIAN_POINT ( 'NONE',  ( 0.000000000000000000, 0.000000000000000000, 15.00000000000000000 ) ) ;
#146 = AXIS2_PLACEMENT_3D ( 'NONE', #158, #64, #149 ) ;
#147 = CARTESIAN_POINT ( 'NONE',  ( 1.249000902703301108E-13, 0.000000000000000000, 1013.708846461269559 ) ) ;
#148 = CYLINDRICAL_SURFACE ( 'NONE', #122, 50.79999999999999716 ) ;
#149 = DIRECTION ( 'NONE',  ( 1.000000000000000000, 0.000000000000000000, 0.000000000000000000 ) ) ;
#150 = APPLICATION_PROTOCOL_DEFINITION ( 'international standard', 'config_control_design', 1994, #127 ) ;
#151 = ORIENTED_EDGE ( 'NONE', *, *, #185, .F. ) ;
#152 = COORDINATED_UNIVERSAL_TIME_OFFSET ( 2, 0, .AHEAD. ) ;
#153 = ORIENTED_EDGE ( 'NONE', *, *, #92, .T. ) ;
#154 = FACE_OUTER_BOUND ( 'NONE', #161, .T. ) ;
#155 = ADVANCED_FACE ( 'NONE', ( #160 ), #148, .T. ) ;
#156 = PERSON_AND_ORGANIZATION_ROLE ( 'creator' ) ;
#157 = APPROVAL_DATE_TIME ( #141, #30 ) ;
#158 = CARTESIAN_POINT ( 'NONE',  ( 1.249000902703301108E-13, 0.000000000000000000, 1013.708846461269559 ) ) ;
#159 = DIRECTION ( 'NONE',  ( 0.000000000000000000, 1.000000000000000000, -0.000000000000000000 ) ) ;
#160 = FACE_OUTER_BOUND ( 'NONE', #177, .T. ) ;
#161 = EDGE_LOOP ( 'NONE', ( #29, #133 ) ) ;
#162 = AXIS2_PLACEMENT_3D ( 'NONE', #63, #175, #132 ) ;
#163 = DIRECTION ( 'NONE',  ( 1.000000000000000000, 0.000000000000000000, -0.000000000000000000 ) ) ;
#164 = ORIENTED_EDGE ( 'NONE', *, *, #139, .T. ) ;
#165 = LOCAL_TIME ( 8, 24, 19.00000000000000000, #169 ) ;
#166 = ADVANCED_BREP_SHAPE_REPRESENTATION ( '010-0825E_N-BK7_PCV_window', ( #62, #110 ), #197 ) ;
#167 = CARTESIAN_POINT ( 'NONE',  ( 0.000000000000000000, 0.000000000000000000, 15.00000000000000000 ) ) ;
#168 = DIRECTION ( 'NONE',  ( -1.000000000000000000, 0.000000000000000000, 0.000000000000000000 ) ) ;
#169 = COORDINATED_UNIVERSAL_TIME_OFFSET ( 2, 0, .AHEAD. ) ;
#170 = PERSON_AND_ORGANIZATION ( #57, #41 ) ;
#171 = VECTOR ( 'NONE', #79, 1000.000000000000000 ) ;
#172 = APPROVAL_STATUS ( 'not_yet_approved' ) ;
#173 = EDGE_CURVE ( 'NONE', #19, #5, #80, .T. ) ;
#174 = ORIENTED_EDGE ( 'NONE', *, *, #92, .F. ) ;
#175 = DIRECTION ( 'NONE',  ( 0.000000000000000000, -1.000000000000000000, -0.000000000000000000 ) ) ;
#176 = EDGE_CURVE ( 'NONE', #190, #124, #8, .T. ) ;
#177 = EDGE_LOOP ( 'NONE', ( #151, #120, #164, #47 ) ) ;
#178 = DIRECTION ( 'NONE',  ( -0.000000000000000000, -0.000000000000000000, -1.000000000000000000 ) ) ;
#179 = CC_DESIGN_PERSON_AND_ORGANIZATION_ASSIGNMENT ( #170, #76, ( #137 ) ) ;
#180 = CIRCLE ( 'NONE', #2, 50.79999999999999716 ) ;
#181 = APPROVAL_STATUS ( 'not_yet_approved' ) ;
#182 = ORIENTED_EDGE ( 'NONE', *, *, #173, .T. ) ;
#183 = APPROVAL_PERSON_ORGANIZATION ( #49, #84, #67 ) ;
#184 = EDGE_LOOP ( 'NONE', ( #37, #153, #6 ) ) ;
#185 = EDGE_CURVE ( 'NONE', #124, #19, #98, .T. ) ;
#186 = DATE_TIME_ROLE ( 'creation_date' ) ;
#187 = EDGE_CURVE ( 'NONE', #124, #190, #189, .T. ) ;
#188 = SPHERICAL_SURFACE ( 'NONE', #146, 999.9999999999998863 ) ;
#189 = CIRCLE ( 'NONE', #101, 50.80000000000131877 ) ;
#190 = VERTEX_POINT ( 'NONE', #97 ) ;
#191 = CC_DESIGN_DATE_AND_TIME_ASSIGNMENT ( #27, #74, ( #14 ) ) ;
#192 = ORIENTED_EDGE ( 'NONE', *, *, #185, .T. ) ;
#193 = EDGE_LOOP ( 'NONE', ( #174, #50, #87 ) ) ;
#194 = DESIGN_CONTEXT ( 'detailed design', #127, 'design' ) ;
#195 = DIRECTION ( 'NONE',  ( 0.000000000000000000, 0.000000000000000000, 1.000000000000000000 ) ) ;
#196 = DIRECTION ( 'NONE',  ( 1.000000000000000000, 0.000000000000000000, 0.000000000000000000 ) ) ;
#197 =( GEOMETRIC_REPRESENTATION_CONTEXT ( 3 ) GLOBAL_UNCERTAINTY_ASSIGNED_CONTEXT ( ( #100 ) ) GLOBAL_UNIT_ASSIGNED_CONTEXT ( ( #34, #48, #35 ) ) REPRESENTATION_CONTEXT ( 'NONE', 'WORKASPACE' ) );
#198 = CARTESIAN_POINT ( 'NONE',  ( 1.249000902703301108E-13, 0.000000000000000000, 15.00000000000001421 ) ) ;
#199 = ADVANCED_FACE ( 'NONE', ( #154 ), #11, .F. ) ;
#200 = DIRECTION ( 'NONE',  ( 1.000000000000000000, 0.000000000000000000, 0.000000000000000000 ) ) ;
#201 = APPLICATION_PROTOCOL_DEFINITION ( 'international standard', 'config_control_design', 1994, #73 ) ;
ENDSEC;
END-ISO-10303-21;
