ISO-10303-21;
HEADER;
FILE_DESCRIPTION (( 'STEP AP203' ),
    '1' );
FILE_NAME ('010-0820E_N-BK7_PCV_window.STEP',
    '2021-02-26T06:23:42',
    ( '' ),
    ( '' ),
    'SwSTEP 2.0',
    'SolidWorks 2019',
    '' );
FILE_SCHEMA (( 'CONFIG_CONTROL_DESIGN' ));
ENDSEC;

DATA;
#1 = EDGE_CURVE ( 'NONE', #97, #162, #19, .T. ) ;
#2 = EDGE_LOOP ( 'NONE', ( #111, #189, #114 ) ) ;
#3 = CIRCLE ( 'NONE', #100, 50.80000000000022453 ) ;
#4 = ORIENTED_EDGE ( 'NONE', *, *, #1, .T. ) ;
#5 = CYLINDRICAL_SURFACE ( 'NONE', #41, 50.79999999999999716 ) ;
#6 = SPHERICAL_SURFACE ( 'NONE', #137, 800.0000000000000000 ) ;
#7 = FACE_OUTER_BOUND ( 'NONE', #18, .T. ) ;
#8 = PRODUCT_DEFINITION_FORMATION_WITH_SPECIFIED_SOURCE ( 'ANY', '', #190, .NOT_KNOWN. ) ;
#9 = AXIS2_PLACEMENT_3D ( 'NONE', #66, #116, #27 ) ;
#10 = CARTESIAN_POINT ( 'NONE',  ( 9.714451465470119729E-14, 0.000000000000000000, 15.00000000000001421 ) ) ;
#11 = DIRECTION ( 'NONE',  ( 0.000000000000000000, 0.000000000000000000, 1.000000000000000000 ) ) ;
#12 = PERSON_AND_ORGANIZATION_ROLE ( 'classification_officer' ) ;
#13 = CIRCLE ( 'NONE', #9, 800.0000000000001137 ) ;
#14 = PERSON_AND_ORGANIZATION_ROLE ( 'design_supplier' ) ;
#15 = APPROVAL_STATUS ( 'not_yet_approved' ) ;
#16 = VERTEX_POINT ( 'NONE', #24 ) ;
#17 = ADVANCED_FACE ( 'NONE', ( #39 ), #180, .F. ) ;
#18 = EDGE_LOOP ( 'NONE', ( #177, #20, #192, #4 ) ) ;
#19 = CIRCLE ( 'NONE', #118, 50.79999999999999716 ) ;
#20 = ORIENTED_EDGE ( 'NONE', *, *, #95, .T. ) ;
#21 = CARTESIAN_POINT ( 'NONE',  ( -50.79999999999999716, 0.000000000000000000, 0.000000000000000000 ) ) ;
#22 = DIRECTION ( 'NONE',  ( 0.000000000000000000, -1.000000000000000000, -0.000000000000000000 ) ) ;
#23 = DESIGN_CONTEXT ( 'detailed design', #125, 'design' ) ;
#24 = CARTESIAN_POINT ( 'NONE',  ( -50.80000000000013927, 0.000000000000000000, 15.00000000000001421 ) ) ;
#25 = DIRECTION ( 'NONE',  ( -0.000000000000000000, -0.000000000000000000, -1.000000000000000000 ) ) ;
#26 = AXIS2_PLACEMENT_3D ( 'NONE', #28, #34, #71 ) ;
#27 = DIRECTION ( 'NONE',  ( 0.000000000000000000, 0.000000000000000000, 1.000000000000000000 ) ) ;
#28 = CARTESIAN_POINT ( 'NONE',  ( 0.000000000000000000, 0.000000000000000000, 0.000000000000000000 ) ) ;
#29 = DATE_TIME_ROLE ( 'creation_date' ) ;
#30 = LOCAL_TIME ( 8, 23, 42.00000000000000000, #44 ) ;
#31 = AXIS2_PLACEMENT_3D ( 'NONE', #138, #163, #42 ) ;
#32 = APPROVAL_ROLE ( '' ) ;
#33 = CALENDAR_DATE ( 2021, 26, 2 ) ;
#34 = DIRECTION ( 'NONE',  ( 0.000000000000000000, 0.000000000000000000, 1.000000000000000000 ) ) ;
#35 = EDGE_CURVE ( 'NONE', #16, #97, #65, .T. ) ;
#36 = ORIENTED_EDGE ( 'NONE', *, *, #1, .F. ) ;
#37 = CC_DESIGN_APPROVAL ( #105, ( #8 ) ) ;
#38 = DIRECTION ( 'NONE',  ( 1.000000000000000000, 0.000000000000000000, 0.000000000000000000 ) ) ;
#39 = FACE_OUTER_BOUND ( 'NONE', #2, .T. ) ;
#40 = ADVANCED_FACE ( 'NONE', ( #150 ), #83, .T. ) ;
#41 = AXIS2_PLACEMENT_3D ( 'NONE', #166, #68, #134 ) ;
#42 = DIRECTION ( 'NONE',  ( 1.000000000000000000, 0.000000000000000000, -0.000000000000000000 ) ) ;
#43 = CARTESIAN_POINT ( 'NONE',  ( 0.000000000000000000, 0.000000000000000000, 0.000000000000000000 ) ) ;
#44 = COORDINATED_UNIVERSAL_TIME_OFFSET ( 2, 0, .AHEAD. ) ;
#45 = PERSON_AND_ORGANIZATION_ROLE ( 'creator' ) ;
#46 = APPLICATION_PROTOCOL_DEFINITION ( 'international standard', 'config_control_design', 1994, #80 ) ;
#47 = CC_DESIGN_APPROVAL ( #164, ( #191 ) ) ;
#48 = PERSON_AND_ORGANIZATION ( #193, #142 ) ;
#49 = DATE_AND_TIME ( #173, #171 ) ;
#50 = EDGE_LOOP ( 'NONE', ( #131, #176, #63, #51 ) ) ;
#51 = ORIENTED_EDGE ( 'NONE', *, *, #35, .F. ) ;
#52 = FACE_OUTER_BOUND ( 'NONE', #161, .T. ) ;
#53 = ADVANCED_FACE ( 'NONE', ( #52 ), #6, .F. ) ;
#54 = DIRECTION ( 'NONE',  ( 1.224646799147353207E-16, -1.000000000000000000, 0.000000000000000000 ) ) ;
#55 = SECURITY_CLASSIFICATION ( '', '', #200 ) ;
#56 = FACE_OUTER_BOUND ( 'NONE', #77, .T. ) ;
#57 = CC_DESIGN_APPROVAL ( #148, ( #55 ) ) ;
#58 = DATE_AND_TIME ( #33, #79 ) ;
#59 = PERSON_AND_ORGANIZATION ( #193, #142 ) ;
#60 = CC_DESIGN_DATE_AND_TIME_ASSIGNMENT ( #89, #29, ( #191 ) ) ;
#61 = SHAPE_DEFINITION_REPRESENTATION ( #93, #121 ) ;
#62 = AXIS2_PLACEMENT_3D ( 'NONE', #195, #22, #38 ) ;
#63 = ORIENTED_EDGE ( 'NONE', *, *, #199, .T. ) ;
#64 = CC_DESIGN_PERSON_AND_ORGANIZATION_ASSIGNMENT ( #186, #104, ( #8 ) ) ;
#65 = LINE ( 'NONE', #85, #179 ) ;
#66 = CARTESIAN_POINT ( 'NONE',  ( 9.714451465470119729E-14, 0.000000000000000000, 813.3854708096836248 ) ) ;
#67 = UNCERTAINTY_MEASURE_WITH_UNIT (LENGTH_MEASURE( 1.000000000000000082E-05 ), #120, 'distance_accuracy_value', 'NONE');
#68 = DIRECTION ( 'NONE',  ( -0.000000000000000000, -0.000000000000000000, -1.000000000000000000 ) ) ;
#69 = APPROVAL_PERSON_ORGANIZATION ( #188, #164, #168 ) ;
#70 = CARTESIAN_POINT ( 'NONE',  ( 9.714451465470119729E-14, 0.000000000000000000, 15.00000000000001421 ) ) ;
#71 = DIRECTION ( 'NONE',  ( 1.000000000000000000, 0.000000000000000000, 0.000000000000000000 ) ) ;
#72 = COORDINATED_UNIVERSAL_TIME_OFFSET ( 2, 0, .AHEAD. ) ;
#73 = EDGE_CURVE ( 'NONE', #113, #92, #13, .T. ) ;
#74 = DATE_AND_TIME ( #172, #30 ) ;
#75 = PERSON_AND_ORGANIZATION ( #193, #142 ) ;
#76 = ORIENTED_EDGE ( 'NONE', *, *, #199, .F. ) ;
#77 = EDGE_LOOP ( 'NONE', ( #36, #76 ) ) ;
#78 = APPROVAL_PERSON_ORGANIZATION ( #75, #148, #141 ) ;
#79 = LOCAL_TIME ( 8, 23, 42.00000000000000000, #139 ) ;
#80 = APPLICATION_CONTEXT ( 'configuration controlled 3d designs of mechanical parts and assemblies' ) ;
#81 = ORIENTED_EDGE ( 'NONE', *, *, #155, .F. ) ;
#82 = CARTESIAN_POINT ( 'NONE',  ( 50.80000000000032401, 6.221205739668593962E-15, 15.00000000000001421 ) ) ;
#83 = CYLINDRICAL_SURFACE ( 'NONE', #160, 50.79999999999999716 ) ;
#84 = CARTESIAN_POINT ( 'NONE',  ( 1.461303866205953070E-13, 0.000000000000000000, 13.38547080968355374 ) ) ;
#85 = CARTESIAN_POINT ( 'NONE',  ( -50.79999999999999716, 0.000000000000000000, 15.00000000000000000 ) ) ;
#86 =( NAMED_UNIT ( * ) PLANE_ANGLE_UNIT ( ) SI_UNIT ( $, .RADIAN. ) );
#87 = CC_DESIGN_PERSON_AND_ORGANIZATION_ASSIGNMENT ( #185, #12, ( #55 ) ) ;
#88 = CC_DESIGN_PERSON_AND_ORGANIZATION_ASSIGNMENT ( #59, #122, ( #190 ) ) ;
#89 = DATE_AND_TIME ( #158, #159 ) ;
#90 = AXIS2_PLACEMENT_3D ( 'NONE', #10, #194, #99 ) ;
#91 = COORDINATED_UNIVERSAL_TIME_OFFSET ( 2, 0, .AHEAD. ) ;
#92 = VERTEX_POINT ( 'NONE', #84 ) ;
#93 = PRODUCT_DEFINITION_SHAPE ( 'NONE', 'NONE',  #191 ) ;
#94 = MANIFOLD_SOLID_BREP ( 'Cut-Revolve1', #109 ) ;
#95 = EDGE_CURVE ( 'NONE', #113, #16, #130, .T. ) ;
#96 = AXIS2_PLACEMENT_3D ( 'NONE', #101, #54, #136 ) ;
#97 = VERTEX_POINT ( 'NONE', #21 ) ;
#98 = DIRECTION ( 'NONE',  ( -0.000000000000000000, -0.000000000000000000, -1.000000000000000000 ) ) ;
#99 = DIRECTION ( 'NONE',  ( 1.000000000000000000, 0.000000000000000000, 0.000000000000000000 ) ) ;
#100 = AXIS2_PLACEMENT_3D ( 'NONE', #70, #119, #181 ) ;
#101 = CARTESIAN_POINT ( 'NONE',  ( 9.714451465470119729E-14, 0.000000000000000000, 813.3854708096836248 ) ) ;
#102 = DIRECTION ( 'NONE',  ( 0.000000000000000000, 0.000000000000000000, 1.000000000000000000 ) ) ;
#103 = PLANE ( 'NONE',  #31 ) ;
#104 = PERSON_AND_ORGANIZATION_ROLE ( 'creator' ) ;
#105 = APPROVAL ( #15, 'UNSPECIFIED' ) ;
#106 = CALENDAR_DATE ( 2021, 26, 2 ) ;
#107 = MECHANICAL_CONTEXT ( 'NONE', #80, 'mechanical' ) ;
#108 =( GEOMETRIC_REPRESENTATION_CONTEXT ( 3 ) GLOBAL_UNCERTAINTY_ASSIGNED_CONTEXT ( ( #67 ) ) GLOBAL_UNIT_ASSIGNED_CONTEXT ( ( #120, #86, #115 ) ) REPRESENTATION_CONTEXT ( 'NONE', 'WORKASPACE' ) );
#109 = CLOSED_SHELL ( 'NONE', ( #17, #40, #149, #112, #53 ) ) ;
#110 = APPROVAL_DATE_TIME ( #58, #148 ) ;
#111 = ORIENTED_EDGE ( 'NONE', *, *, #170, .F. ) ;
#112 = ADVANCED_FACE ( 'NONE', ( #56 ), #103, .F. ) ;
#113 = VERTEX_POINT ( 'NONE', #82 ) ;
#114 = ORIENTED_EDGE ( 'NONE', *, *, #73, .F. ) ;
#115 =( NAMED_UNIT ( * ) SI_UNIT ( $, .STERADIAN. ) SOLID_ANGLE_UNIT ( ) );
#116 = DIRECTION ( 'NONE',  ( 0.000000000000000000, 1.000000000000000000, -0.000000000000000000 ) ) ;
#117 = DIRECTION ( 'NONE',  ( -0.000000000000000000, -0.000000000000000000, -1.000000000000000000 ) ) ;
#118 = AXIS2_PLACEMENT_3D ( 'NONE', #144, #11, #132 ) ;
#119 = DIRECTION ( 'NONE',  ( -0.000000000000000000, -0.000000000000000000, -1.000000000000000000 ) ) ;
#120 =( LENGTH_UNIT ( ) NAMED_UNIT ( * ) SI_UNIT ( .MILLI., .METRE. ) );
#121 = ADVANCED_BREP_SHAPE_REPRESENTATION ( '010-0820E_N-BK7_PCV_window', ( #94, #26 ), #108 ) ;
#122 = PERSON_AND_ORGANIZATION_ROLE ( 'design_owner' ) ;
#123 = APPROVAL_DATE_TIME ( #153, #105 ) ;
#124 = LOCAL_TIME ( 8, 23, 42.00000000000000000, #72 ) ;
#125 = APPLICATION_CONTEXT ( 'configuration controlled 3d designs of mechanical parts and assemblies' ) ;
#126 = APPLICATION_PROTOCOL_DEFINITION ( 'international standard', 'config_control_design', 1994, #125 ) ;
#127 = CC_DESIGN_SECURITY_CLASSIFICATION ( #55, ( #8 ) ) ;
#128 = PRODUCT_RELATED_PRODUCT_CATEGORY ( 'detail', '', ( #190 ) ) ;
#129 = EDGE_CURVE ( 'NONE', #113, #162, #165, .T. ) ;
#130 = CIRCLE ( 'NONE', #90, 50.80000000000022453 ) ;
#131 = ORIENTED_EDGE ( 'NONE', *, *, #170, .T. ) ;
#132 = DIRECTION ( 'NONE',  ( 1.000000000000000000, 0.000000000000000000, 0.000000000000000000 ) ) ;
#133 = DIRECTION ( 'NONE',  ( 0.000000000000000000, -1.000000000000000000, -0.000000000000000000 ) ) ;
#134 = DIRECTION ( 'NONE',  ( -1.000000000000000000, 0.000000000000000000, 0.000000000000000000 ) ) ;
#135 = CC_DESIGN_PERSON_AND_ORGANIZATION_ASSIGNMENT ( #140, #45, ( #191 ) ) ;
#136 = DIRECTION ( 'NONE',  ( 1.000000000000000000, 1.224646799147353207E-16, 0.000000000000000000 ) ) ;
#137 = AXIS2_PLACEMENT_3D ( 'NONE', #152, #133, #178 ) ;
#138 = CARTESIAN_POINT ( 'NONE',  ( 0.000000000000000000, 0.000000000000000000, 0.000000000000000000 ) ) ;
#139 = COORDINATED_UNIVERSAL_TIME_OFFSET ( 2, 0, .AHEAD. ) ;
#140 = PERSON_AND_ORGANIZATION ( #193, #142 ) ;
#141 = APPROVAL_ROLE ( '' ) ;
#142 = ORGANIZATION ( 'UNSPECIFIED', 'UNSPECIFIED', '' ) ;
#143 = CC_DESIGN_PERSON_AND_ORGANIZATION_ASSIGNMENT ( #169, #14, ( #8 ) ) ;
#144 = CARTESIAN_POINT ( 'NONE',  ( 0.000000000000000000, 0.000000000000000000, 0.000000000000000000 ) ) ;
#145 = APPROVAL_PERSON_ORGANIZATION ( #48, #105, #32 ) ;
#146 = ORIENTED_EDGE ( 'NONE', *, *, #73, .T. ) ;
#147 = CARTESIAN_POINT ( 'NONE',  ( 0.000000000000000000, 0.000000000000000000, 15.00000000000000000 ) ) ;
#148 = APPROVAL ( #157, 'UNSPECIFIED' ) ;
#149 = ADVANCED_FACE ( 'NONE', ( #7 ), #5, .T. ) ;
#150 = FACE_OUTER_BOUND ( 'NONE', #50, .T. ) ;
#151 = DIRECTION ( 'NONE',  ( -1.000000000000000000, 0.000000000000000000, 0.000000000000000000 ) ) ;
#152 = CARTESIAN_POINT ( 'NONE',  ( 9.714451465470119729E-14, 0.000000000000000000, 813.3854708096836248 ) ) ;
#153 = DATE_AND_TIME ( #106, #124 ) ;
#154 = CIRCLE ( 'NONE', #201, 50.79999999999999716 ) ;
#155 = EDGE_CURVE ( 'NONE', #16, #92, #187, .T. ) ;
#156 = COORDINATED_UNIVERSAL_TIME_OFFSET ( 2, 0, .AHEAD. ) ;
#157 = APPROVAL_STATUS ( 'not_yet_approved' ) ;
#158 = CALENDAR_DATE ( 2021, 26, 2 ) ;
#159 = LOCAL_TIME ( 8, 23, 42.00000000000000000, #91 ) ;
#160 = AXIS2_PLACEMENT_3D ( 'NONE', #147, #98, #151 ) ;
#161 = EDGE_LOOP ( 'NONE', ( #81, #175, #146 ) ) ;
#162 = VERTEX_POINT ( 'NONE', #197 ) ;
#163 = DIRECTION ( 'NONE',  ( 0.000000000000000000, 0.000000000000000000, 1.000000000000000000 ) ) ;
#164 = APPROVAL ( #182, 'UNSPECIFIED' ) ;
#165 = LINE ( 'NONE', #167, #196 ) ;
#166 = CARTESIAN_POINT ( 'NONE',  ( 0.000000000000000000, 0.000000000000000000, 15.00000000000000000 ) ) ;
#167 = CARTESIAN_POINT ( 'NONE',  ( 50.79999999999999716, 6.221205739668553730E-15, 15.00000000000000000 ) ) ;
#168 = APPROVAL_ROLE ( '' ) ;
#169 = PERSON_AND_ORGANIZATION ( #193, #142 ) ;
#170 = EDGE_CURVE ( 'NONE', #16, #113, #3, .T. ) ;
#171 = LOCAL_TIME ( 8, 23, 42.00000000000000000, #156 ) ;
#172 = CALENDAR_DATE ( 2021, 26, 2 ) ;
#173 = CALENDAR_DATE ( 2021, 26, 2 ) ;
#174 = DATE_TIME_ROLE ( 'classification_date' ) ;
#175 = ORIENTED_EDGE ( 'NONE', *, *, #95, .F. ) ;
#176 = ORIENTED_EDGE ( 'NONE', *, *, #129, .T. ) ;
#177 = ORIENTED_EDGE ( 'NONE', *, *, #129, .F. ) ;
#178 = DIRECTION ( 'NONE',  ( 1.000000000000000000, 0.000000000000000000, 0.000000000000000000 ) ) ;
#179 = VECTOR ( 'NONE', #25, 1000.000000000000000 ) ;
#180 = SPHERICAL_SURFACE ( 'NONE', #62, 800.0000000000000000 ) ;
#181 = DIRECTION ( 'NONE',  ( 1.000000000000000000, 0.000000000000000000, 0.000000000000000000 ) ) ;
#182 = APPROVAL_STATUS ( 'not_yet_approved' ) ;
#183 = APPROVAL_DATE_TIME ( #74, #164 ) ;
#184 = CC_DESIGN_DATE_AND_TIME_ASSIGNMENT ( #49, #174, ( #55 ) ) ;
#185 = PERSON_AND_ORGANIZATION ( #193, #142 ) ;
#186 = PERSON_AND_ORGANIZATION ( #193, #142 ) ;
#187 = CIRCLE ( 'NONE', #96, 800.0000000000000000 ) ;
#188 = PERSON_AND_ORGANIZATION ( #193, #142 ) ;
#189 = ORIENTED_EDGE ( 'NONE', *, *, #155, .T. ) ;
#190 = PRODUCT ( '010-0820E_N-BK7_PCV_window', '010-0820E_N-BK7_PCV_window', '', ( #107 ) ) ;
#191 = PRODUCT_DEFINITION ( 'UNKNOWN', '', #8, #23 ) ;
#192 = ORIENTED_EDGE ( 'NONE', *, *, #35, .T. ) ;
#193 = PERSON ( 'UNSPECIFIED', 'UNSPECIFIED', 'UNSPECIFIED', ('UNSPECIFIED'), ('UNSPECIFIED'), ('UNSPECIFIED') ) ;
#194 = DIRECTION ( 'NONE',  ( -0.000000000000000000, -0.000000000000000000, -1.000000000000000000 ) ) ;
#195 = CARTESIAN_POINT ( 'NONE',  ( 9.714451465470119729E-14, 0.000000000000000000, 813.3854708096836248 ) ) ;
#196 = VECTOR ( 'NONE', #117, 1000.000000000000000 ) ;
#197 = CARTESIAN_POINT ( 'NONE',  ( 50.79999999999999716, 6.221205739668553730E-15, 0.000000000000000000 ) ) ;
#198 = DIRECTION ( 'NONE',  ( 1.000000000000000000, 0.000000000000000000, 0.000000000000000000 ) ) ;
#199 = EDGE_CURVE ( 'NONE', #162, #97, #154, .T. ) ;
#200 = SECURITY_CLASSIFICATION_LEVEL ( 'unclassified' ) ;
#201 = AXIS2_PLACEMENT_3D ( 'NONE', #43, #102, #198 ) ;
ENDSEC;
END-ISO-10303-21;
