ISO-10303-21;
HEADER;
FILE_DESCRIPTION (( 'STEP AP203' ),
    '1' );
FILE_NAME ('010-0814E_N-BK7_PCV_window.STEP',
    '2021-02-26T06:23:16',
    ( '' ),
    ( '' ),
    'SwSTEP 2.0',
    'SolidWorks 2019',
    '' );
FILE_SCHEMA (( 'CONFIG_CONTROL_DESIGN' ));
ENDSEC;

DATA;
#1 = CARTESIAN_POINT ( 'NONE',  ( 0.000000000000000000, 0.000000000000000000, 0.000000000000000000 ) ) ;
#2 = DIRECTION ( 'NONE',  ( 1.000000000000000000, 0.000000000000000000, 0.000000000000000000 ) ) ;
#3 =( GEOMETRIC_REPRESENTATION_CONTEXT ( 3 ) GLOBAL_UNCERTAINTY_ASSIGNED_CONTEXT ( ( #128 ) ) GLOBAL_UNIT_ASSIGNED_CONTEXT ( ( #89, #91, #9 ) ) REPRESENTATION_CONTEXT ( 'NONE', 'WORKASPACE' ) );
#4 = CARTESIAN_POINT ( 'NONE',  ( 0.000000000000000000, 0.000000000000000000, 0.000000000000000000 ) ) ;
#5 = CC_DESIGN_PERSON_AND_ORGANIZATION_ASSIGNMENT ( #141, #41, ( #51 ) ) ;
#6 = LOCAL_TIME ( 8, 23, 16.00000000000000000, #110 ) ;
#7 = APPROVAL_DATE_TIME ( #125, #138 ) ;
#8 = LOCAL_TIME ( 8, 23, 16.00000000000000000, #108 ) ;
#9 =( NAMED_UNIT ( * ) SI_UNIT ( $, .STERADIAN. ) SOLID_ANGLE_UNIT ( ) );
#10 = CARTESIAN_POINT ( 'NONE',  ( 7.632783294297951215E-14, 0.000000000000000000, 612.8455987962108793 ) ) ;
#11 = DIRECTION ( 'NONE',  ( 0.000000000000000000, 0.000000000000000000, 1.000000000000000000 ) ) ;
#12 = ORIENTED_EDGE ( 'NONE', *, *, #109, .F. ) ;
#13 = ORIENTED_EDGE ( 'NONE', *, *, #102, .T. ) ;
#14 = ORIENTED_EDGE ( 'NONE', *, *, #38, .T. ) ;
#15 = CARTESIAN_POINT ( 'NONE',  ( 0.000000000000000000, 0.000000000000000000, 15.00000000000000000 ) ) ;
#16 = VERTEX_POINT ( 'NONE', #33 ) ;
#17 = CC_DESIGN_PERSON_AND_ORGANIZATION_ASSIGNMENT ( #121, #107, ( #74 ) ) ;
#18 = FACE_OUTER_BOUND ( 'NONE', #127, .T. ) ;
#19 = CC_DESIGN_PERSON_AND_ORGANIZATION_ASSIGNMENT ( #187, #42, ( #68 ) ) ;
#20 = ADVANCED_BREP_SHAPE_REPRESENTATION ( '010-0814E_N-BK7_PCV_window', ( #28, #87 ), #3 ) ;
#21 = APPROVAL_PERSON_ORGANIZATION ( #24, #46, #166 ) ;
#22 = CARTESIAN_POINT ( 'NONE',  ( -50.79999999999999716, 0.000000000000000000, 15.00000000000000000 ) ) ;
#23 = APPROVAL_DATE_TIME ( #129, #46 ) ;
#24 = PERSON_AND_ORGANIZATION ( #179, #113 ) ;
#25 = ADVANCED_FACE ( 'NONE', ( #18 ), #176, .F. ) ;
#26 = DIRECTION ( 'NONE',  ( 1.000000000000000000, 0.000000000000000000, 0.000000000000000000 ) ) ;
#27 = ORIENTED_EDGE ( 'NONE', *, *, #30, .F. ) ;
#28 = MANIFOLD_SOLID_BREP ( 'Cut-Revolve1', #159 ) ;
#29 = ORIENTED_EDGE ( 'NONE', *, *, #38, .F. ) ;
#30 = EDGE_CURVE ( 'NONE', #155, #200, #32, .T. ) ;
#31 = SHAPE_DEFINITION_REPRESENTATION ( #43, #20 ) ;
#32 = CIRCLE ( 'NONE', #39, 50.79999999999999716 ) ;
#33 = CARTESIAN_POINT ( 'NONE',  ( -50.80000000000124061, 0.000000000000000000, 15.00000000000001421 ) ) ;
#34 = APPROVAL_STATUS ( 'not_yet_approved' ) ;
#35 = PRODUCT_RELATED_PRODUCT_CATEGORY ( 'detail', '', ( #74 ) ) ;
#36 = CARTESIAN_POINT ( 'NONE',  ( 7.632783294297951215E-14, 0.000000000000000000, 612.8455987962108793 ) ) ;
#37 = DIRECTION ( 'NONE',  ( 1.000000000000000000, 0.000000000000000000, 0.000000000000000000 ) ) ;
#38 = EDGE_CURVE ( 'NONE', #200, #155, #98, .T. ) ;
#39 = AXIS2_PLACEMENT_3D ( 'NONE', #1, #101, #37 ) ;
#40 = DIRECTION ( 'NONE',  ( -0.000000000000000000, -0.000000000000000000, -1.000000000000000000 ) ) ;
#41 = PERSON_AND_ORGANIZATION_ROLE ( 'creator' ) ;
#42 = PERSON_AND_ORGANIZATION_ROLE ( 'design_supplier' ) ;
#43 = PRODUCT_DEFINITION_SHAPE ( 'NONE', 'NONE',  #51 ) ;
#44 = CALENDAR_DATE ( 2021, 26, 2 ) ;
#45 = DIRECTION ( 'NONE',  ( -0.000000000000000000, -0.000000000000000000, -1.000000000000000000 ) ) ;
#46 = APPROVAL ( #140, 'UNSPECIFIED' ) ;
#47 = SECURITY_CLASSIFICATION_LEVEL ( 'unclassified' ) ;
#48 = AXIS2_PLACEMENT_3D ( 'NONE', #146, #63, #60 ) ;
#49 = ORIENTED_EDGE ( 'NONE', *, *, #116, .T. ) ;
#50 = DIRECTION ( 'NONE',  ( 0.000000000000000000, -1.000000000000000000, -0.000000000000000000 ) ) ;
#51 = PRODUCT_DEFINITION ( 'UNKNOWN', '', #68, #167 ) ;
#52 = MECHANICAL_CONTEXT ( 'NONE', #149, 'mechanical' ) ;
#53 = CARTESIAN_POINT ( 'NONE',  ( 50.79999999999999716, 6.221205739668553730E-15, 15.00000000000000000 ) ) ;
#54 = DATE_AND_TIME ( #183, #8 ) ;
#55 = AXIS2_PLACEMENT_3D ( 'NONE', #4, #82, #65 ) ;
#56 = CC_DESIGN_PERSON_AND_ORGANIZATION_ASSIGNMENT ( #171, #57, ( #156 ) ) ;
#57 = PERSON_AND_ORGANIZATION_ROLE ( 'classification_officer' ) ;
#58 = VERTEX_POINT ( 'NONE', #174 ) ;
#59 = AXIS2_PLACEMENT_3D ( 'NONE', #36, #80, #2 ) ;
#60 = DIRECTION ( 'NONE',  ( 1.000000000000000000, 0.000000000000000000, -0.000000000000000000 ) ) ;
#61 = EDGE_CURVE ( 'NONE', #16, #77, #84, .T. ) ;
#62 = PERSON_AND_ORGANIZATION ( #179, #113 ) ;
#63 = DIRECTION ( 'NONE',  ( 0.000000000000000000, 0.000000000000000000, 1.000000000000000000 ) ) ;
#64 = LOCAL_TIME ( 8, 23, 16.00000000000000000, #178 ) ;
#65 = DIRECTION ( 'NONE',  ( 1.000000000000000000, 0.000000000000000000, 0.000000000000000000 ) ) ;
#66 = DIRECTION ( 'NONE',  ( 1.000000000000000000, 0.000000000000000000, 0.000000000000000000 ) ) ;
#67 = ADVANCED_FACE ( 'NONE', ( #100 ), #104, .F. ) ;
#68 = PRODUCT_DEFINITION_FORMATION_WITH_SPECIFIED_SOURCE ( 'ANY', '', #74, .NOT_KNOWN. ) ;
#69 = APPLICATION_PROTOCOL_DEFINITION ( 'international standard', 'config_control_design', 1994, #149 ) ;
#70 = AXIS2_PLACEMENT_3D ( 'NONE', #135, #50, #66 ) ;
#71 = CC_DESIGN_DATE_AND_TIME_ASSIGNMENT ( #54, #161, ( #51 ) ) ;
#72 = DIRECTION ( 'NONE',  ( 1.000000000000000000, 0.000000000000000000, 0.000000000000000000 ) ) ;
#73 = ORIENTED_EDGE ( 'NONE', *, *, #61, .F. ) ;
#74 = PRODUCT ( '010-0814E_N-BK7_PCV_window', '010-0814E_N-BK7_PCV_window', '', ( #52 ) ) ;
#75 = DATE_AND_TIME ( #44, #6 ) ;
#76 = COORDINATED_UNIVERSAL_TIME_OFFSET ( 2, 0, .AHEAD. ) ;
#77 = VERTEX_POINT ( 'NONE', #157 ) ;
#78 = DATE_TIME_ROLE ( 'classification_date' ) ;
#79 = DIRECTION ( 'NONE',  ( 1.224646799147353207E-16, -1.000000000000000000, 0.000000000000000000 ) ) ;
#80 = DIRECTION ( 'NONE',  ( 0.000000000000000000, -1.000000000000000000, -0.000000000000000000 ) ) ;
#81 = CC_DESIGN_APPROVAL ( #138, ( #68 ) ) ;
#82 = DIRECTION ( 'NONE',  ( 0.000000000000000000, 0.000000000000000000, 1.000000000000000000 ) ) ;
#83 = ADVANCED_FACE ( 'NONE', ( #191 ), #147, .F. ) ;
#84 = CIRCLE ( 'NONE', #181, 600.0000000000001137 ) ;
#85 = PERSON_AND_ORGANIZATION ( #179, #113 ) ;
#86 = LINE ( 'NONE', #53, #160 ) ;
#87 = AXIS2_PLACEMENT_3D ( 'NONE', #124, #11, #72 ) ;
#88 = COORDINATED_UNIVERSAL_TIME_OFFSET ( 2, 0, .AHEAD. ) ;
#89 =( LENGTH_UNIT ( ) NAMED_UNIT ( * ) SI_UNIT ( .MILLI., .METRE. ) );
#90 = ORIENTED_EDGE ( 'NONE', *, *, #116, .F. ) ;
#91 =( NAMED_UNIT ( * ) PLANE_ANGLE_UNIT ( ) SI_UNIT ( $, .RADIAN. ) );
#92 = ADVANCED_FACE ( 'NONE', ( #117 ), #175, .T. ) ;
#93 = VECTOR ( 'NONE', #151, 1000.000000000000000 ) ;
#94 = ORIENTED_EDGE ( 'NONE', *, *, #61, .T. ) ;
#95 = DATE_AND_TIME ( #185, #119 ) ;
#96 = ORIENTED_EDGE ( 'NONE', *, *, #109, .T. ) ;
#97 = ADVANCED_FACE ( 'NONE', ( #137 ), #115, .T. ) ;
#98 = CIRCLE ( 'NONE', #55, 50.79999999999999716 ) ;
#99 = ORIENTED_EDGE ( 'NONE', *, *, #30, .T. ) ;
#100 = FACE_OUTER_BOUND ( 'NONE', #153, .T. ) ;
#101 = DIRECTION ( 'NONE',  ( 0.000000000000000000, 0.000000000000000000, 1.000000000000000000 ) ) ;
#102 = EDGE_CURVE ( 'NONE', #16, #58, #139, .T. ) ;
#103 = CC_DESIGN_APPROVAL ( #46, ( #51 ) ) ;
#104 = PLANE ( 'NONE',  #48 ) ;
#105 = EDGE_CURVE ( 'NONE', #58, #155, #86, .T. ) ;
#106 = LINE ( 'NONE', #22, #93 ) ;
#107 = PERSON_AND_ORGANIZATION_ROLE ( 'design_owner' ) ;
#108 = COORDINATED_UNIVERSAL_TIME_OFFSET ( 2, 0, .AHEAD. ) ;
#109 = EDGE_CURVE ( 'NONE', #58, #77, #195, .T. ) ;
#110 = COORDINATED_UNIVERSAL_TIME_OFFSET ( 2, 0, .AHEAD. ) ;
#111 = APPROVAL_DATE_TIME ( #95, #190 ) ;
#112 = DIRECTION ( 'NONE',  ( -0.000000000000000000, -0.000000000000000000, -1.000000000000000000 ) ) ;
#113 = ORGANIZATION ( 'UNSPECIFIED', 'UNSPECIFIED', '' ) ;
#114 = APPROVAL_ROLE ( '' ) ;
#115 = CYLINDRICAL_SURFACE ( 'NONE', #126, 50.79999999999999716 ) ;
#116 = EDGE_CURVE ( 'NONE', #16, #200, #106, .T. ) ;
#117 = FACE_OUTER_BOUND ( 'NONE', #168, .T. ) ;
#118 = CARTESIAN_POINT ( 'NONE',  ( 0.000000000000000000, 0.000000000000000000, 15.00000000000000000 ) ) ;
#119 = LOCAL_TIME ( 8, 23, 16.00000000000000000, #76 ) ;
#120 = CC_DESIGN_SECURITY_CLASSIFICATION ( #156, ( #68 ) ) ;
#121 = PERSON_AND_ORGANIZATION ( #179, #113 ) ;
#122 = CARTESIAN_POINT ( 'NONE',  ( -50.79999999999999716, 0.000000000000000000, 0.000000000000000000 ) ) ;
#123 = EDGE_CURVE ( 'NONE', #58, #16, #132, .T. ) ;
#124 = CARTESIAN_POINT ( 'NONE',  ( 0.000000000000000000, 0.000000000000000000, 0.000000000000000000 ) ) ;
#125 = DATE_AND_TIME ( #193, #188 ) ;
#126 = AXIS2_PLACEMENT_3D ( 'NONE', #118, #112, #134 ) ;
#127 = EDGE_LOOP ( 'NONE', ( #130, #94, #12 ) ) ;
#128 = UNCERTAINTY_MEASURE_WITH_UNIT (LENGTH_MEASURE( 1.000000000000000082E-05 ), #89, 'distance_accuracy_value', 'NONE');
#129 = DATE_AND_TIME ( #143, #64 ) ;
#130 = ORIENTED_EDGE ( 'NONE', *, *, #102, .F. ) ;
#131 = PERSON_AND_ORGANIZATION_ROLE ( 'creator' ) ;
#132 = CIRCLE ( 'NONE', #136, 50.80000000000131877 ) ;
#133 = ORIENTED_EDGE ( 'NONE', *, *, #123, .T. ) ;
#134 = DIRECTION ( 'NONE',  ( -1.000000000000000000, 0.000000000000000000, 0.000000000000000000 ) ) ;
#135 = CARTESIAN_POINT ( 'NONE',  ( 7.632783294297951215E-14, 0.000000000000000000, 612.8455987962108793 ) ) ;
#136 = AXIS2_PLACEMENT_3D ( 'NONE', #152, #40, #26 ) ;
#137 = FACE_OUTER_BOUND ( 'NONE', #198, .T. ) ;
#138 = APPROVAL ( #165, 'UNSPECIFIED' ) ;
#139 = CIRCLE ( 'NONE', #173, 50.80000000000131877 ) ;
#140 = APPROVAL_STATUS ( 'not_yet_approved' ) ;
#141 = PERSON_AND_ORGANIZATION ( #179, #113 ) ;
#142 = DIRECTION ( 'NONE',  ( 0.000000000000000000, 1.000000000000000000, -0.000000000000000000 ) ) ;
#143 = CALENDAR_DATE ( 2021, 26, 2 ) ;
#144 = CC_DESIGN_APPROVAL ( #190, ( #156 ) ) ;
#145 = EDGE_LOOP ( 'NONE', ( #73, #154, #96 ) ) ;
#146 = CARTESIAN_POINT ( 'NONE',  ( 0.000000000000000000, 0.000000000000000000, 0.000000000000000000 ) ) ;
#147 = SPHERICAL_SURFACE ( 'NONE', #70, 600.0000000000001137 ) ;
#148 = DIRECTION ( 'NONE',  ( -1.000000000000000000, 0.000000000000000000, 0.000000000000000000 ) ) ;
#149 = APPLICATION_CONTEXT ( 'configuration controlled 3d designs of mechanical parts and assemblies' ) ;
#150 = APPROVAL_ROLE ( '' ) ;
#151 = DIRECTION ( 'NONE',  ( -0.000000000000000000, -0.000000000000000000, -1.000000000000000000 ) ) ;
#152 = CARTESIAN_POINT ( 'NONE',  ( 7.632783294297951215E-14, 0.000000000000000000, 15.00000000000001421 ) ) ;
#153 = EDGE_LOOP ( 'NONE', ( #29, #27 ) ) ;
#154 = ORIENTED_EDGE ( 'NONE', *, *, #123, .F. ) ;
#155 = VERTEX_POINT ( 'NONE', #182 ) ;
#156 = SECURITY_CLASSIFICATION ( '', '', #47 ) ;
#157 = CARTESIAN_POINT ( 'NONE',  ( 1.130672369174001197E-13, 0.000000000000000000, 12.84559879621083311 ) ) ;
#158 = DIRECTION ( 'NONE',  ( -0.000000000000000000, -0.000000000000000000, -1.000000000000000000 ) ) ;
#159 = CLOSED_SHELL ( 'NONE', ( #25, #92, #97, #67, #83 ) ) ;
#160 = VECTOR ( 'NONE', #196, 1000.000000000000000 ) ;
#161 = DATE_TIME_ROLE ( 'creation_date' ) ;
#162 = APPLICATION_PROTOCOL_DEFINITION ( 'international standard', 'config_control_design', 1994, #180 ) ;
#163 = CC_DESIGN_DATE_AND_TIME_ASSIGNMENT ( #75, #78, ( #156 ) ) ;
#164 = AXIS2_PLACEMENT_3D ( 'NONE', #10, #142, #192 ) ;
#165 = APPROVAL_STATUS ( 'not_yet_approved' ) ;
#166 = APPROVAL_ROLE ( '' ) ;
#167 = DESIGN_CONTEXT ( 'detailed design', #180, 'design' ) ;
#168 = EDGE_LOOP ( 'NONE', ( #13, #197, #99, #90 ) ) ;
#169 = APPROVAL_PERSON_ORGANIZATION ( #85, #138, #150 ) ;
#170 = PERSON_AND_ORGANIZATION ( #179, #113 ) ;
#171 = PERSON_AND_ORGANIZATION ( #179, #113 ) ;
#172 = DIRECTION ( 'NONE',  ( 1.000000000000000000, 0.000000000000000000, 0.000000000000000000 ) ) ;
#173 = AXIS2_PLACEMENT_3D ( 'NONE', #186, #45, #172 ) ;
#174 = CARTESIAN_POINT ( 'NONE',  ( 50.80000000000139693, 6.221205739668724913E-15, 15.00000000000001421 ) ) ;
#175 = CYLINDRICAL_SURFACE ( 'NONE', #184, 50.79999999999999716 ) ;
#176 = SPHERICAL_SURFACE ( 'NONE', #59, 600.0000000000001137 ) ;
#177 = APPROVAL_PERSON_ORGANIZATION ( #62, #190, #114 ) ;
#178 = COORDINATED_UNIVERSAL_TIME_OFFSET ( 2, 0, .AHEAD. ) ;
#179 = PERSON ( 'UNSPECIFIED', 'UNSPECIFIED', 'UNSPECIFIED', ('UNSPECIFIED'), ('UNSPECIFIED'), ('UNSPECIFIED') ) ;
#180 = APPLICATION_CONTEXT ( 'configuration controlled 3d designs of mechanical parts and assemblies' ) ;
#181 = AXIS2_PLACEMENT_3D ( 'NONE', #189, #79, #201 ) ;
#182 = CARTESIAN_POINT ( 'NONE',  ( 50.79999999999999716, 6.221205739668553730E-15, 0.000000000000000000 ) ) ;
#183 = CALENDAR_DATE ( 2021, 26, 2 ) ;
#184 = AXIS2_PLACEMENT_3D ( 'NONE', #15, #158, #148 ) ;
#185 = CALENDAR_DATE ( 2021, 26, 2 ) ;
#186 = CARTESIAN_POINT ( 'NONE',  ( 7.632783294297951215E-14, 0.000000000000000000, 15.00000000000001421 ) ) ;
#187 = PERSON_AND_ORGANIZATION ( #179, #113 ) ;
#188 = LOCAL_TIME ( 8, 23, 16.00000000000000000, #88 ) ;
#189 = CARTESIAN_POINT ( 'NONE',  ( 7.632783294297951215E-14, 0.000000000000000000, 612.8455987962108793 ) ) ;
#190 = APPROVAL ( #34, 'UNSPECIFIED' ) ;
#191 = FACE_OUTER_BOUND ( 'NONE', #145, .T. ) ;
#192 = DIRECTION ( 'NONE',  ( 0.000000000000000000, 0.000000000000000000, 1.000000000000000000 ) ) ;
#193 = CALENDAR_DATE ( 2021, 26, 2 ) ;
#194 = ORIENTED_EDGE ( 'NONE', *, *, #105, .F. ) ;
#195 = CIRCLE ( 'NONE', #164, 600.0000000000001137 ) ;
#196 = DIRECTION ( 'NONE',  ( -0.000000000000000000, -0.000000000000000000, -1.000000000000000000 ) ) ;
#197 = ORIENTED_EDGE ( 'NONE', *, *, #105, .T. ) ;
#198 = EDGE_LOOP ( 'NONE', ( #194, #133, #49, #14 ) ) ;
#199 = CC_DESIGN_PERSON_AND_ORGANIZATION_ASSIGNMENT ( #170, #131, ( #68 ) ) ;
#200 = VERTEX_POINT ( 'NONE', #122 ) ;
#201 = DIRECTION ( 'NONE',  ( 1.000000000000000000, 1.224646799147353207E-16, 0.000000000000000000 ) ) ;
ENDSEC;
END-ISO-10303-21;
