ISO-10303-21;
HEADER;
FILE_DESCRIPTION (( 'STEP AP203' ),
    '1' );
FILE_NAME ('010-0812E_N-BK7_PCV_window.STEP',
    '2021-02-26T06:22:49',
    ( '' ),
    ( '' ),
    'SwSTEP 2.0',
    'SolidWorks 2019',
    '' );
FILE_SCHEMA (( 'CONFIG_CONTROL_DESIGN' ));
ENDSEC;

DATA;
#1 = DIRECTION ( 'NONE',  ( 1.000000000000000000, 0.000000000000000000, 0.000000000000000000 ) ) ;
#2 = CARTESIAN_POINT ( 'NONE',  ( -50.79999999999999716, 0.000000000000000000, 15.00000000000000000 ) ) ;
#3 = CARTESIAN_POINT ( 'NONE',  ( 50.80000000000055849, 6.221205739668623150E-15, 15.00000000000001421 ) ) ;
#4 = CLOSED_SHELL ( 'NONE', ( #93, #187, #69, #195, #28 ) ) ;
#5 = APPLICATION_CONTEXT ( 'configuration controlled 3d designs of mechanical parts and assemblies' ) ;
#6 = FACE_OUTER_BOUND ( 'NONE', #171, .T. ) ;
#7 = APPROVAL_DATE_TIME ( #150, #133 ) ;
#8 = EDGE_CURVE ( 'NONE', #142, #73, #17, .T. ) ;
#9 = CIRCLE ( 'NONE', #126, 50.80000000000049454 ) ;
#10 = APPROVAL_DATE_TIME ( #22, #155 ) ;
#11 = CC_DESIGN_PERSON_AND_ORGANIZATION_ASSIGNMENT ( #182, #151, ( #74 ) ) ;
#12 = ORIENTED_EDGE ( 'NONE', *, *, #115, .F. ) ;
#13 = VERTEX_POINT ( 'NONE', #19 ) ;
#14 = ORIENTED_EDGE ( 'NONE', *, *, #37, .F. ) ;
#15 = CIRCLE ( 'NONE', #87, 50.79999999999999716 ) ;
#16 = DIRECTION ( 'NONE',  ( 0.000000000000000000, 0.000000000000000000, 1.000000000000000000 ) ) ;
#17 = CIRCLE ( 'NONE', #170, 50.80000000000049454 ) ;
#18 = CARTESIAN_POINT ( 'NONE',  ( -50.80000000000043769, 0.000000000000000000, 15.00000000000001421 ) ) ;
#19 = CARTESIAN_POINT ( 'NONE',  ( -50.79999999999999716, 0.000000000000000000, 0.000000000000000000 ) ) ;
#20 = COORDINATED_UNIVERSAL_TIME_OFFSET ( 2, 0, .AHEAD. ) ;
#21 = APPROVAL_PERSON_ORGANIZATION ( #184, #133, #105 ) ;
#22 = DATE_AND_TIME ( #121, #72 ) ;
#23 = CALENDAR_DATE ( 2021, 26, 2 ) ;
#24 = UNCERTAINTY_MEASURE_WITH_UNIT (LENGTH_MEASURE( 1.000000000000000082E-05 ), #46, 'distance_accuracy_value', 'NONE');
#25 = DATE_AND_TIME ( #36, #76 ) ;
#26 = DATE_TIME_ROLE ( 'creation_date' ) ;
#27 = CC_DESIGN_APPROVAL ( #133, ( #119 ) ) ;
#28 = ADVANCED_FACE ( 'NONE', ( #42 ), #40, .F. ) ;
#29 = APPROVAL_PERSON_ORGANIZATION ( #66, #155, #117 ) ;
#30 = CARTESIAN_POINT ( 'NONE',  ( 6.245004513516505540E-14, 0.000000000000000000, 15.00000000000001421 ) ) ;
#31 = FACE_OUTER_BOUND ( 'NONE', #122, .T. ) ;
#32 = CARTESIAN_POINT ( 'NONE',  ( 6.245004513516505540E-14, 0.000000000000000000, 512.4126657012263877 ) ) ;
#33 = CC_DESIGN_PERSON_AND_ORGANIZATION_ASSIGNMENT ( #34, #183, ( #77 ) ) ;
#34 = PERSON_AND_ORGANIZATION ( #89, #163 ) ;
#35 = CALENDAR_DATE ( 2021, 26, 2 ) ;
#36 = CALENDAR_DATE ( 2021, 26, 2 ) ;
#37 = EDGE_CURVE ( 'NONE', #73, #92, #96, .T. ) ;
#38 = LOCAL_TIME ( 8, 22, 49.00000000000000000, #164 ) ;
#39 = ORIENTED_EDGE ( 'NONE', *, *, #86, .T. ) ;
#40 = SPHERICAL_SURFACE ( 'NONE', #186, 500.0000000000000000 ) ;
#41 = CC_DESIGN_PERSON_AND_ORGANIZATION_ASSIGNMENT ( #152, #194, ( #61 ) ) ;
#42 = FACE_OUTER_BOUND ( 'NONE', #94, .T. ) ;
#43 = ADVANCED_BREP_SHAPE_REPRESENTATION ( '010-0812E_N-BK7_PCV_window', ( #123, #135 ), #112 ) ;
#44 = DIRECTION ( 'NONE',  ( -0.000000000000000000, -0.000000000000000000, -1.000000000000000000 ) ) ;
#45 = CARTESIAN_POINT ( 'NONE',  ( 0.000000000000000000, 0.000000000000000000, 0.000000000000000000 ) ) ;
#46 =( LENGTH_UNIT ( ) NAMED_UNIT ( * ) SI_UNIT ( .MILLI., .METRE. ) );
#47 = CC_DESIGN_APPROVAL ( #155, ( #74 ) ) ;
#48 = SHAPE_DEFINITION_REPRESENTATION ( #79, #43 ) ;
#49 = APPLICATION_PROTOCOL_DEFINITION ( 'international standard', 'config_control_design', 1994, #67 ) ;
#50 = COORDINATED_UNIVERSAL_TIME_OFFSET ( 2, 0, .AHEAD. ) ;
#51 = AXIS2_PLACEMENT_3D ( 'NONE', #129, #44, #176 ) ;
#52 = SECURITY_CLASSIFICATION_LEVEL ( 'unclassified' ) ;
#53 = APPLICATION_PROTOCOL_DEFINITION ( 'international standard', 'config_control_design', 1994, #5 ) ;
#54 = PRODUCT_RELATED_PRODUCT_CATEGORY ( 'detail', '', ( #61 ) ) ;
#55 = ORIENTED_EDGE ( 'NONE', *, *, #173, .T. ) ;
#56 = APPROVAL_PERSON_ORGANIZATION ( #103, #147, #180 ) ;
#57 = ORIENTED_EDGE ( 'NONE', *, *, #37, .T. ) ;
#58 = ORIENTED_EDGE ( 'NONE', *, *, #86, .F. ) ;
#59 = CARTESIAN_POINT ( 'NONE',  ( 50.79999999999999716, 6.221205739668553730E-15, 0.000000000000000000 ) ) ;
#60 = EDGE_CURVE ( 'NONE', #73, #172, #84, .T. ) ;
#61 = PRODUCT ( '010-0812E_N-BK7_PCV_window', '010-0812E_N-BK7_PCV_window', '', ( #153 ) ) ;
#62 = FACE_OUTER_BOUND ( 'NONE', #143, .T. ) ;
#63 = CARTESIAN_POINT ( 'NONE',  ( 0.000000000000000000, 0.000000000000000000, 15.00000000000000000 ) ) ;
#64 = CARTESIAN_POINT ( 'NONE',  ( 6.245004513516505540E-14, 0.000000000000000000, 15.00000000000001421 ) ) ;
#65 = DIRECTION ( 'NONE',  ( -1.000000000000000000, 0.000000000000000000, 0.000000000000000000 ) ) ;
#66 = PERSON_AND_ORGANIZATION ( #89, #163 ) ;
#67 = APPLICATION_CONTEXT ( 'configuration controlled 3d designs of mechanical parts and assemblies' ) ;
#68 = APPROVAL_STATUS ( 'not_yet_approved' ) ;
#69 = ADVANCED_FACE ( 'NONE', ( #31 ), #174, .T. ) ;
#70 = APPROVAL_STATUS ( 'not_yet_approved' ) ;
#71 = ORIENTED_EDGE ( 'NONE', *, *, #158, .T. ) ;
#72 = LOCAL_TIME ( 8, 22, 49.00000000000000000, #20 ) ;
#73 = VERTEX_POINT ( 'NONE', #3 ) ;
#74 = PRODUCT_DEFINITION ( 'UNKNOWN', '', #77, #137 ) ;
#75 = ORIENTED_EDGE ( 'NONE', *, *, #8, .F. ) ;
#76 = LOCAL_TIME ( 8, 22, 49.00000000000000000, #50 ) ;
#77 = PRODUCT_DEFINITION_FORMATION_WITH_SPECIFIED_SOURCE ( 'ANY', '', #61, .NOT_KNOWN. ) ;
#78 = DIRECTION ( 'NONE',  ( -0.000000000000000000, -0.000000000000000000, -1.000000000000000000 ) ) ;
#79 = PRODUCT_DEFINITION_SHAPE ( 'NONE', 'NONE',  #74 ) ;
#80 = DIRECTION ( 'NONE',  ( 1.000000000000000000, 0.000000000000000000, 0.000000000000000000 ) ) ;
#81 = DIRECTION ( 'NONE',  ( 0.000000000000000000, -1.000000000000000000, -0.000000000000000000 ) ) ;
#82 = CIRCLE ( 'NONE', #91, 500.0000000000000000 ) ;
#83 = DIRECTION ( 'NONE',  ( 0.000000000000000000, 0.000000000000000000, 1.000000000000000000 ) ) ;
#84 = LINE ( 'NONE', #175, #144 ) ;
#85 = PERSON_AND_ORGANIZATION ( #89, #163 ) ;
#86 = EDGE_CURVE ( 'NONE', #73, #142, #9, .T. ) ;
#87 = AXIS2_PLACEMENT_3D ( 'NONE', #45, #83, #99 ) ;
#88 = CALENDAR_DATE ( 2021, 26, 2 ) ;
#89 = PERSON ( 'UNSPECIFIED', 'UNSPECIFIED', 'UNSPECIFIED', ('UNSPECIFIED'), ('UNSPECIFIED'), ('UNSPECIFIED') ) ;
#90 = PERSON_AND_ORGANIZATION_ROLE ( 'creator' ) ;
#91 = AXIS2_PLACEMENT_3D ( 'NONE', #32, #113, #128 ) ;
#92 = VERTEX_POINT ( 'NONE', #192 ) ;
#93 = ADVANCED_FACE ( 'NONE', ( #62 ), #146, .F. ) ;
#94 = EDGE_LOOP ( 'NONE', ( #12, #58, #57 ) ) ;
#95 = DIRECTION ( 'NONE',  ( -0.000000000000000000, -0.000000000000000000, -1.000000000000000000 ) ) ;
#96 = CIRCLE ( 'NONE', #185, 500.0000000000001137 ) ;
#97 = DIRECTION ( 'NONE',  ( 1.000000000000000000, 0.000000000000000000, 0.000000000000000000 ) ) ;
#98 = FACE_OUTER_BOUND ( 'NONE', #198, .T. ) ;
#99 = DIRECTION ( 'NONE',  ( 1.000000000000000000, 0.000000000000000000, 0.000000000000000000 ) ) ;
#100 = CC_DESIGN_APPROVAL ( #147, ( #77 ) ) ;
#101 = DIRECTION ( 'NONE',  ( -0.000000000000000000, -0.000000000000000000, -1.000000000000000000 ) ) ;
#102 = EDGE_CURVE ( 'NONE', #142, #13, #191, .T. ) ;
#103 = PERSON_AND_ORGANIZATION ( #89, #163 ) ;
#104 = LOCAL_TIME ( 8, 22, 49.00000000000000000, #165 ) ;
#105 = APPROVAL_ROLE ( '' ) ;
#106 = AXIS2_PLACEMENT_3D ( 'NONE', #127, #178, #80 ) ;
#107 = ORIENTED_EDGE ( 'NONE', *, *, #173, .F. ) ;
#108 = CC_DESIGN_PERSON_AND_ORGANIZATION_ASSIGNMENT ( #118, #90, ( #77 ) ) ;
#109 = ORIENTED_EDGE ( 'NONE', *, *, #8, .T. ) ;
#110 = DIRECTION ( 'NONE',  ( -0.000000000000000000, -0.000000000000000000, -1.000000000000000000 ) ) ;
#111 = CARTESIAN_POINT ( 'NONE',  ( 6.245004513516505540E-14, 0.000000000000000000, 512.4126657012263877 ) ) ;
#112 =( GEOMETRIC_REPRESENTATION_CONTEXT ( 3 ) GLOBAL_UNCERTAINTY_ASSIGNED_CONTEXT ( ( #24 ) ) GLOBAL_UNIT_ASSIGNED_CONTEXT ( ( #46, #131, #168 ) ) REPRESENTATION_CONTEXT ( 'NONE', 'WORKASPACE' ) );
#113 = DIRECTION ( 'NONE',  ( 1.224646799147353207E-16, -1.000000000000000000, 0.000000000000000000 ) ) ;
#114 = DIRECTION ( 'NONE',  ( 0.000000000000000000, 1.000000000000000000, -0.000000000000000000 ) ) ;
#115 = EDGE_CURVE ( 'NONE', #142, #92, #82, .T. ) ;
#116 = DATE_TIME_ROLE ( 'classification_date' ) ;
#117 = APPROVAL_ROLE ( '' ) ;
#118 = PERSON_AND_ORGANIZATION ( #89, #163 ) ;
#119 = SECURITY_CLASSIFICATION ( '', '', #52 ) ;
#120 = DATE_AND_TIME ( #35, #190 ) ;
#121 = CALENDAR_DATE ( 2021, 26, 2 ) ;
#122 = EDGE_LOOP ( 'NONE', ( #145, #39, #156, #71 ) ) ;
#123 = MANIFOLD_SOLID_BREP ( 'Cut-Revolve1', #4 ) ;
#124 = CIRCLE ( 'NONE', #106, 50.79999999999999716 ) ;
#125 = ORIENTED_EDGE ( 'NONE', *, *, #115, .T. ) ;
#126 = AXIS2_PLACEMENT_3D ( 'NONE', #30, #95, #159 ) ;
#127 = CARTESIAN_POINT ( 'NONE',  ( 0.000000000000000000, 0.000000000000000000, 0.000000000000000000 ) ) ;
#128 = DIRECTION ( 'NONE',  ( 1.000000000000000000, 1.224646799147353207E-16, 0.000000000000000000 ) ) ;
#129 = CARTESIAN_POINT ( 'NONE',  ( 0.000000000000000000, 0.000000000000000000, 15.00000000000000000 ) ) ;
#130 = AXIS2_PLACEMENT_3D ( 'NONE', #132, #16, #193 ) ;
#131 =( NAMED_UNIT ( * ) PLANE_ANGLE_UNIT ( ) SI_UNIT ( $, .RADIAN. ) );
#132 = CARTESIAN_POINT ( 'NONE',  ( 0.000000000000000000, 0.000000000000000000, 0.000000000000000000 ) ) ;
#133 = APPROVAL ( #70, 'UNSPECIFIED' ) ;
#134 = COORDINATED_UNIVERSAL_TIME_OFFSET ( 2, 0, .AHEAD. ) ;
#135 = AXIS2_PLACEMENT_3D ( 'NONE', #196, #197, #166 ) ;
#136 = APPROVAL_DATE_TIME ( #138, #147 ) ;
#137 = DESIGN_CONTEXT ( 'detailed design', #5, 'design' ) ;
#138 = DATE_AND_TIME ( #88, #38 ) ;
#139 = AXIS2_PLACEMENT_3D ( 'NONE', #162, #81, #1 ) ;
#140 = APPROVAL_STATUS ( 'not_yet_approved' ) ;
#141 = ORIENTED_EDGE ( 'NONE', *, *, #158, .F. ) ;
#142 = VERTEX_POINT ( 'NONE', #18 ) ;
#143 = EDGE_LOOP ( 'NONE', ( #75, #125, #14 ) ) ;
#144 = VECTOR ( 'NONE', #110, 1000.000000000000000 ) ;
#145 = ORIENTED_EDGE ( 'NONE', *, *, #60, .F. ) ;
#146 = SPHERICAL_SURFACE ( 'NONE', #139, 500.0000000000000000 ) ;
#147 = APPROVAL ( #68, 'UNSPECIFIED' ) ;
#148 = CYLINDRICAL_SURFACE ( 'NONE', #51, 50.79999999999999716 ) ;
#149 = DIRECTION ( 'NONE',  ( 0.000000000000000000, -1.000000000000000000, -0.000000000000000000 ) ) ;
#150 = DATE_AND_TIME ( #23, #104 ) ;
#151 = PERSON_AND_ORGANIZATION_ROLE ( 'creator' ) ;
#152 = PERSON_AND_ORGANIZATION ( #89, #163 ) ;
#153 = MECHANICAL_CONTEXT ( 'NONE', #67, 'mechanical' ) ;
#154 = PERSON_AND_ORGANIZATION_ROLE ( 'classification_officer' ) ;
#155 = APPROVAL ( #140, 'UNSPECIFIED' ) ;
#156 = ORIENTED_EDGE ( 'NONE', *, *, #102, .T. ) ;
#157 = CC_DESIGN_SECURITY_CLASSIFICATION ( #119, ( #77 ) ) ;
#158 = EDGE_CURVE ( 'NONE', #13, #172, #124, .T. ) ;
#159 = DIRECTION ( 'NONE',  ( 1.000000000000000000, 0.000000000000000000, 0.000000000000000000 ) ) ;
#160 = DIRECTION ( 'NONE',  ( 0.000000000000000000, 0.000000000000000000, 1.000000000000000000 ) ) ;
#161 = PLANE ( 'NONE',  #130 ) ;
#162 = CARTESIAN_POINT ( 'NONE',  ( 6.245004513516505540E-14, 0.000000000000000000, 512.4126657012263877 ) ) ;
#163 = ORGANIZATION ( 'UNSPECIFIED', 'UNSPECIFIED', '' ) ;
#164 = COORDINATED_UNIVERSAL_TIME_OFFSET ( 2, 0, .AHEAD. ) ;
#165 = COORDINATED_UNIVERSAL_TIME_OFFSET ( 2, 0, .AHEAD. ) ;
#166 = DIRECTION ( 'NONE',  ( 1.000000000000000000, 0.000000000000000000, 0.000000000000000000 ) ) ;
#167 = CC_DESIGN_DATE_AND_TIME_ASSIGNMENT ( #120, #116, ( #119 ) ) ;
#168 =( NAMED_UNIT ( * ) SI_UNIT ( $, .STERADIAN. ) SOLID_ANGLE_UNIT ( ) );
#169 = VECTOR ( 'NONE', #177, 1000.000000000000000 ) ;
#170 = AXIS2_PLACEMENT_3D ( 'NONE', #64, #101, #189 ) ;
#171 = EDGE_LOOP ( 'NONE', ( #109, #200, #55, #199 ) ) ;
#172 = VERTEX_POINT ( 'NONE', #59 ) ;
#173 = EDGE_CURVE ( 'NONE', #172, #13, #15, .T. ) ;
#174 = CYLINDRICAL_SURFACE ( 'NONE', #179, 50.79999999999999716 ) ;
#175 = CARTESIAN_POINT ( 'NONE',  ( 50.79999999999999716, 6.221205739668553730E-15, 15.00000000000000000 ) ) ;
#176 = DIRECTION ( 'NONE',  ( -1.000000000000000000, 0.000000000000000000, 0.000000000000000000 ) ) ;
#177 = DIRECTION ( 'NONE',  ( -0.000000000000000000, -0.000000000000000000, -1.000000000000000000 ) ) ;
#178 = DIRECTION ( 'NONE',  ( 0.000000000000000000, 0.000000000000000000, 1.000000000000000000 ) ) ;
#179 = AXIS2_PLACEMENT_3D ( 'NONE', #63, #78, #65 ) ;
#180 = APPROVAL_ROLE ( '' ) ;
#181 = CC_DESIGN_DATE_AND_TIME_ASSIGNMENT ( #25, #26, ( #74 ) ) ;
#182 = PERSON_AND_ORGANIZATION ( #89, #163 ) ;
#183 = PERSON_AND_ORGANIZATION_ROLE ( 'design_supplier' ) ;
#184 = PERSON_AND_ORGANIZATION ( #89, #163 ) ;
#185 = AXIS2_PLACEMENT_3D ( 'NONE', #188, #114, #160 ) ;
#186 = AXIS2_PLACEMENT_3D ( 'NONE', #111, #149, #97 ) ;
#187 = ADVANCED_FACE ( 'NONE', ( #6 ), #148, .T. ) ;
#188 = CARTESIAN_POINT ( 'NONE',  ( 6.245004513516505540E-14, 0.000000000000000000, 512.4126657012263877 ) ) ;
#189 = DIRECTION ( 'NONE',  ( 1.000000000000000000, 0.000000000000000000, 0.000000000000000000 ) ) ;
#190 = LOCAL_TIME ( 8, 22, 49.00000000000000000, #134 ) ;
#191 = LINE ( 'NONE', #2, #169 ) ;
#192 = CARTESIAN_POINT ( 'NONE',  ( 9.306621511384889292E-14, 0.000000000000000000, 12.41266570122634505 ) ) ;
#193 = DIRECTION ( 'NONE',  ( 1.000000000000000000, 0.000000000000000000, -0.000000000000000000 ) ) ;
#194 = PERSON_AND_ORGANIZATION_ROLE ( 'design_owner' ) ;
#195 = ADVANCED_FACE ( 'NONE', ( #98 ), #161, .F. ) ;
#196 = CARTESIAN_POINT ( 'NONE',  ( 0.000000000000000000, 0.000000000000000000, 0.000000000000000000 ) ) ;
#197 = DIRECTION ( 'NONE',  ( 0.000000000000000000, 0.000000000000000000, 1.000000000000000000 ) ) ;
#198 = EDGE_LOOP ( 'NONE', ( #141, #107 ) ) ;
#199 = ORIENTED_EDGE ( 'NONE', *, *, #102, .F. ) ;
#200 = ORIENTED_EDGE ( 'NONE', *, *, #60, .T. ) ;
#201 = CC_DESIGN_PERSON_AND_ORGANIZATION_ASSIGNMENT ( #85, #154, ( #119 ) ) ;
ENDSEC;
END-ISO-10303-21;
