ISO-10303-21;
HEADER;
FILE_DESCRIPTION (( 'STEP AP203' ),
    '1' );
FILE_NAME ('010-0810E_N-BK7_PCV_window.STEP',
    '2021-02-26T06:22:11',
    ( '' ),
    ( '' ),
    'SwSTEP 2.0',
    'SolidWorks 2019',
    '' );
FILE_SCHEMA (( 'CONFIG_CONTROL_DESIGN' ));
ENDSEC;

DATA;
#1 = COORDINATED_UNIVERSAL_TIME_OFFSET ( 2, 0, .AHEAD. ) ;
#2 = DIRECTION ( 'NONE',  ( 1.000000000000000000, 0.000000000000000000, -0.000000000000000000 ) ) ;
#3 = DATE_AND_TIME ( #47, #194 ) ;
#4 = ORIENTED_EDGE ( 'NONE', *, *, #168, .T. ) ;
#5 = CALENDAR_DATE ( 2021, 26, 2 ) ;
#6 = CARTESIAN_POINT ( 'NONE',  ( 50.79999999999999716, 6.221205739668553730E-15, 15.00000000000000000 ) ) ;
#7 = PERSON_AND_ORGANIZATION_ROLE ( 'design_owner' ) ;
#8 = CYLINDRICAL_SURFACE ( 'NONE', #120, 50.79999999999999716 ) ;
#9 = PERSON_AND_ORGANIZATION ( #28, #136 ) ;
#10 = CIRCLE ( 'NONE', #148, 400.0000000000000000 ) ;
#11 = LOCAL_TIME ( 8, 22, 11.00000000000000000, #33 ) ;
#12 = EDGE_CURVE ( 'NONE', #73, #14, #10, .T. ) ;
#13 = AXIS2_PLACEMENT_3D ( 'NONE', #137, #99, #127 ) ;
#14 = VERTEX_POINT ( 'NONE', #82 ) ;
#15 = EDGE_LOOP ( 'NONE', ( #45, #113 ) ) ;
#16 = PRODUCT_RELATED_PRODUCT_CATEGORY ( 'detail', '', ( #89 ) ) ;
#17 = FACE_OUTER_BOUND ( 'NONE', #166, .T. ) ;
#18 = PRODUCT_DEFINITION ( 'UNKNOWN', '', #90, #42 ) ;
#19 = DIRECTION ( 'NONE',  ( -0.000000000000000000, -0.000000000000000000, -1.000000000000000000 ) ) ;
#20 = APPROVAL_ROLE ( '' ) ;
#21 = DIRECTION ( 'NONE',  ( -0.000000000000000000, -0.000000000000000000, -1.000000000000000000 ) ) ;
#22 = CALENDAR_DATE ( 2021, 26, 2 ) ;
#23 = DIRECTION ( 'NONE',  ( 0.000000000000000000, 0.000000000000000000, 1.000000000000000000 ) ) ;
#24 = PERSON_AND_ORGANIZATION ( #28, #136 ) ;
#25 = PERSON_AND_ORGANIZATION_ROLE ( 'creator' ) ;
#26 = DIRECTION ( 'NONE',  ( -1.000000000000000000, 0.000000000000000000, 0.000000000000000000 ) ) ;
#27 = EDGE_CURVE ( 'NONE', #169, #175, #185, .T. ) ;
#28 = PERSON ( 'UNSPECIFIED', 'UNSPECIFIED', 'UNSPECIFIED', ('UNSPECIFIED'), ('UNSPECIFIED'), ('UNSPECIFIED') ) ;
#29 = ORIENTED_EDGE ( 'NONE', *, *, #72, .T. ) ;
#30 = EDGE_LOOP ( 'NONE', ( #4, #121, #134, #132 ) ) ;
#31 = DIRECTION ( 'NONE',  ( 1.000000000000000000, 0.000000000000000000, 0.000000000000000000 ) ) ;
#32 = ORIENTED_EDGE ( 'NONE', *, *, #168, .F. ) ;
#33 = COORDINATED_UNIVERSAL_TIME_OFFSET ( 2, 0, .AHEAD. ) ;
#34 = ORIENTED_EDGE ( 'NONE', *, *, #184, .F. ) ;
#35 = SECURITY_CLASSIFICATION_LEVEL ( 'unclassified' ) ;
#36 = CYLINDRICAL_SURFACE ( 'NONE', #164, 50.79999999999999716 ) ;
#37 = APPROVAL_DATE_TIME ( #79, #87 ) ;
#38 = CARTESIAN_POINT ( 'NONE',  ( 50.79999999999999716, 6.221205739668553730E-15, 0.000000000000000000 ) ) ;
#39 =( GEOMETRIC_REPRESENTATION_CONTEXT ( 3 ) GLOBAL_UNCERTAINTY_ASSIGNED_CONTEXT ( ( #118 ) ) GLOBAL_UNIT_ASSIGNED_CONTEXT ( ( #125, #123, #97 ) ) REPRESENTATION_CONTEXT ( 'NONE', 'WORKASPACE' ) );
#40 = ADVANCED_FACE ( 'NONE', ( #156 ), #98, .F. ) ;
#41 = MANIFOLD_SOLID_BREP ( 'Cut-Revolve1', #181 ) ;
#42 = DESIGN_CONTEXT ( 'detailed design', #188, 'design' ) ;
#43 = CC_DESIGN_DATE_AND_TIME_ASSIGNMENT ( #192, #157, ( #18 ) ) ;
#44 = CIRCLE ( 'NONE', #198, 50.79999999999999716 ) ;
#45 = ORIENTED_EDGE ( 'NONE', *, *, #78, .F. ) ;
#46 = LINE ( 'NONE', #6, #162 ) ;
#47 = CALENDAR_DATE ( 2021, 26, 2 ) ;
#48 = EDGE_LOOP ( 'NONE', ( #34, #117, #153 ) ) ;
#49 = PERSON_AND_ORGANIZATION ( #28, #136 ) ;
#50 = VERTEX_POINT ( 'NONE', #38 ) ;
#51 = CARTESIAN_POINT ( 'NONE',  ( 0.000000000000000000, 0.000000000000000000, 0.000000000000000000 ) ) ;
#52 = CARTESIAN_POINT ( 'NONE',  ( 0.000000000000000000, 0.000000000000000000, 0.000000000000000000 ) ) ;
#53 = APPLICATION_PROTOCOL_DEFINITION ( 'international standard', 'config_control_design', 1994, #92 ) ;
#54 = APPROVAL_PERSON_ORGANIZATION ( #159, #102, #20 ) ;
#55 = DATE_AND_TIME ( #191, #138 ) ;
#56 = ADVANCED_FACE ( 'NONE', ( #93 ), #36, .T. ) ;
#57 = AXIS2_PLACEMENT_3D ( 'NONE', #200, #178, #126 ) ;
#58 = ADVANCED_FACE ( 'NONE', ( #190 ), #105, .F. ) ;
#59 = AXIS2_PLACEMENT_3D ( 'NONE', #51, #67, #139 ) ;
#60 = DIRECTION ( 'NONE',  ( 1.000000000000000000, 0.000000000000000000, 0.000000000000000000 ) ) ;
#61 = DIRECTION ( 'NONE',  ( -0.000000000000000000, -0.000000000000000000, -1.000000000000000000 ) ) ;
#62 = CARTESIAN_POINT ( 'NONE',  ( 0.000000000000000000, 0.000000000000000000, 0.000000000000000000 ) ) ;
#63 = COORDINATED_UNIVERSAL_TIME_OFFSET ( 2, 0, .AHEAD. ) ;
#64 = CARTESIAN_POINT ( 'NONE',  ( 4.857225732735059864E-14, 0.000000000000000000, 15.00000000000001421 ) ) ;
#65 = DATE_AND_TIME ( #22, #76 ) ;
#66 = CARTESIAN_POINT ( 'NONE',  ( 0.000000000000000000, 0.000000000000000000, 0.000000000000000000 ) ) ;
#67 = DIRECTION ( 'NONE',  ( 0.000000000000000000, 0.000000000000000000, 1.000000000000000000 ) ) ;
#68 = PERSON_AND_ORGANIZATION ( #28, #136 ) ;
#69 = CC_DESIGN_APPROVAL ( #174, ( #90 ) ) ;
#70 = AXIS2_PLACEMENT_3D ( 'NONE', #160, #61, #111 ) ;
#71 = ORIENTED_EDGE ( 'NONE', *, *, #184, .T. ) ;
#72 = EDGE_CURVE ( 'NONE', #73, #169, #74, .T. ) ;
#73 = VERTEX_POINT ( 'NONE', #109 ) ;
#74 = CIRCLE ( 'NONE', #70, 50.79999999999994742 ) ;
#75 = CARTESIAN_POINT ( 'NONE',  ( -50.79999999999999716, 0.000000000000000000, 0.000000000000000000 ) ) ;
#76 = LOCAL_TIME ( 8, 22, 11.00000000000000000, #1 ) ;
#77 = DIRECTION ( 'NONE',  ( -0.000000000000000000, -0.000000000000000000, -1.000000000000000000 ) ) ;
#78 = EDGE_CURVE ( 'NONE', #175, #50, #44, .T. ) ;
#79 = DATE_AND_TIME ( #143, #11 ) ;
#80 = CARTESIAN_POINT ( 'NONE',  ( 0.000000000000000000, 0.000000000000000000, 15.00000000000000000 ) ) ;
#81 = CIRCLE ( 'NONE', #13, 400.0000000000000000 ) ;
#82 = CARTESIAN_POINT ( 'NONE',  ( 7.306519331029765352E-14, 0.000000000000000000, 11.76108680161669362 ) ) ;
#83 = DIRECTION ( 'NONE',  ( -0.000000000000000000, -0.000000000000000000, -1.000000000000000000 ) ) ;
#84 = ADVANCED_BREP_SHAPE_REPRESENTATION ( '010-0810E_N-BK7_PCV_window', ( #41, #59 ), #39 ) ;
#85 = PERSON_AND_ORGANIZATION ( #28, #136 ) ;
#86 = AXIS2_PLACEMENT_3D ( 'NONE', #158, #171, #31 ) ;
#87 = APPROVAL ( #115, 'UNSPECIFIED' ) ;
#88 = CIRCLE ( 'NONE', #114, 50.79999999999994742 ) ;
#89 = PRODUCT ( '010-0810E_N-BK7_PCV_window', '010-0810E_N-BK7_PCV_window', '', ( #155 ) ) ;
#90 = PRODUCT_DEFINITION_FORMATION_WITH_SPECIFIED_SOURCE ( 'ANY', '', #89, .NOT_KNOWN. ) ;
#91 = ORIENTED_EDGE ( 'NONE', *, *, #106, .F. ) ;
#92 = APPLICATION_CONTEXT ( 'configuration controlled 3d designs of mechanical parts and assemblies' ) ;
#93 = FACE_OUTER_BOUND ( 'NONE', #30, .T. ) ;
#94 = CC_DESIGN_PERSON_AND_ORGANIZATION_ASSIGNMENT ( #85, #177, ( #90 ) ) ;
#95 = CARTESIAN_POINT ( 'NONE',  ( 4.857225732735059864E-14, 0.000000000000000000, 411.7610868016167274 ) ) ;
#96 = CC_DESIGN_APPROVAL ( #87, ( #193 ) ) ;
#97 =( NAMED_UNIT ( * ) SI_UNIT ( $, .STERADIAN. ) SOLID_ANGLE_UNIT ( ) );
#98 = SPHERICAL_SURFACE ( 'NONE', #57, 400.0000000000000000 ) ;
#99 = DIRECTION ( 'NONE',  ( 1.224646799147353207E-16, -1.000000000000000000, 0.000000000000000000 ) ) ;
#100 = SHAPE_DEFINITION_REPRESENTATION ( #167, #84 ) ;
#101 = COORDINATED_UNIVERSAL_TIME_OFFSET ( 2, 0, .AHEAD. ) ;
#102 = APPROVAL ( #186, 'UNSPECIFIED' ) ;
#103 = CC_DESIGN_SECURITY_CLASSIFICATION ( #193, ( #90 ) ) ;
#104 = CIRCLE ( 'NONE', #170, 50.79999999999999716 ) ;
#105 = SPHERICAL_SURFACE ( 'NONE', #86, 400.0000000000000000 ) ;
#106 = EDGE_CURVE ( 'NONE', #73, #50, #46, .T. ) ;
#107 = DIRECTION ( 'NONE',  ( 1.000000000000000000, 0.000000000000000000, 0.000000000000000000 ) ) ;
#108 = PERSON_AND_ORGANIZATION_ROLE ( 'classification_officer' ) ;
#109 = CARTESIAN_POINT ( 'NONE',  ( 50.79999999999999716, 6.221205739668553730E-15, 15.00000000000001421 ) ) ;
#110 = APPROVAL_ROLE ( '' ) ;
#111 = DIRECTION ( 'NONE',  ( 1.000000000000000000, 0.000000000000000000, 0.000000000000000000 ) ) ;
#112 = APPROVAL_DATE_TIME ( #65, #174 ) ;
#113 = ORIENTED_EDGE ( 'NONE', *, *, #149, .F. ) ;
#114 = AXIS2_PLACEMENT_3D ( 'NONE', #64, #19, #60 ) ;
#115 = APPROVAL_STATUS ( 'not_yet_approved' ) ;
#116 = CC_DESIGN_PERSON_AND_ORGANIZATION_ASSIGNMENT ( #179, #7, ( #89 ) ) ;
#117 = ORIENTED_EDGE ( 'NONE', *, *, #72, .F. ) ;
#118 = UNCERTAINTY_MEASURE_WITH_UNIT (LENGTH_MEASURE( 1.000000000000000082E-05 ), #125, 'distance_accuracy_value', 'NONE');
#119 = CC_DESIGN_PERSON_AND_ORGANIZATION_ASSIGNMENT ( #24, #108, ( #193 ) ) ;
#120 = AXIS2_PLACEMENT_3D ( 'NONE', #146, #83, #26 ) ;
#121 = ORIENTED_EDGE ( 'NONE', *, *, #106, .T. ) ;
#122 = DIRECTION ( 'NONE',  ( 0.000000000000000000, 1.000000000000000000, -0.000000000000000000 ) ) ;
#123 =( NAMED_UNIT ( * ) PLANE_ANGLE_UNIT ( ) SI_UNIT ( $, .RADIAN. ) );
#124 = DIRECTION ( 'NONE',  ( 1.000000000000000000, 0.000000000000000000, 0.000000000000000000 ) ) ;
#125 =( LENGTH_UNIT ( ) NAMED_UNIT ( * ) SI_UNIT ( .MILLI., .METRE. ) );
#126 = DIRECTION ( 'NONE',  ( 1.000000000000000000, 0.000000000000000000, 0.000000000000000000 ) ) ;
#127 = DIRECTION ( 'NONE',  ( 1.000000000000000000, 1.224646799147353207E-16, 0.000000000000000000 ) ) ;
#128 = COORDINATED_UNIVERSAL_TIME_OFFSET ( 2, 0, .AHEAD. ) ;
#129 = ADVANCED_FACE ( 'NONE', ( #154 ), #140, .F. ) ;
#130 = APPROVAL_PERSON_ORGANIZATION ( #68, #87, #173 ) ;
#131 = ORIENTED_EDGE ( 'NONE', *, *, #12, .F. ) ;
#132 = ORIENTED_EDGE ( 'NONE', *, *, #27, .F. ) ;
#133 = CC_DESIGN_PERSON_AND_ORGANIZATION_ASSIGNMENT ( #9, #25, ( #90 ) ) ;
#134 = ORIENTED_EDGE ( 'NONE', *, *, #149, .T. ) ;
#135 = CARTESIAN_POINT ( 'NONE',  ( -50.79999999999999716, 0.000000000000000000, 15.00000000000000000 ) ) ;
#136 = ORGANIZATION ( 'UNSPECIFIED', 'UNSPECIFIED', '' ) ;
#137 = CARTESIAN_POINT ( 'NONE',  ( 4.857225732735059864E-14, 0.000000000000000000, 411.7610868016167274 ) ) ;
#138 = LOCAL_TIME ( 8, 22, 11.00000000000000000, #63 ) ;
#139 = DIRECTION ( 'NONE',  ( 1.000000000000000000, 0.000000000000000000, 0.000000000000000000 ) ) ;
#140 = PLANE ( 'NONE',  #150 ) ;
#141 = PERSON_AND_ORGANIZATION ( #28, #136 ) ;
#142 = DIRECTION ( 'NONE',  ( 0.000000000000000000, 0.000000000000000000, 1.000000000000000000 ) ) ;
#143 = CALENDAR_DATE ( 2021, 26, 2 ) ;
#144 = CC_DESIGN_DATE_AND_TIME_ASSIGNMENT ( #55, #147, ( #193 ) ) ;
#145 = DIRECTION ( 'NONE',  ( -1.000000000000000000, 0.000000000000000000, 0.000000000000000000 ) ) ;
#146 = CARTESIAN_POINT ( 'NONE',  ( 0.000000000000000000, 0.000000000000000000, 15.00000000000000000 ) ) ;
#147 = DATE_TIME_ROLE ( 'classification_date' ) ;
#148 = AXIS2_PLACEMENT_3D ( 'NONE', #95, #122, #187 ) ;
#149 = EDGE_CURVE ( 'NONE', #50, #175, #104, .T. ) ;
#150 = AXIS2_PLACEMENT_3D ( 'NONE', #66, #23, #2 ) ;
#151 = ORIENTED_EDGE ( 'NONE', *, *, #27, .T. ) ;
#152 = CC_DESIGN_PERSON_AND_ORGANIZATION_ASSIGNMENT ( #141, #163, ( #18 ) ) ;
#153 = ORIENTED_EDGE ( 'NONE', *, *, #12, .T. ) ;
#154 = FACE_OUTER_BOUND ( 'NONE', #15, .T. ) ;
#155 = MECHANICAL_CONTEXT ( 'NONE', #92, 'mechanical' ) ;
#156 = FACE_OUTER_BOUND ( 'NONE', #48, .T. ) ;
#157 = DATE_TIME_ROLE ( 'creation_date' ) ;
#158 = CARTESIAN_POINT ( 'NONE',  ( 4.857225732735059864E-14, 0.000000000000000000, 411.7610868016167274 ) ) ;
#159 = PERSON_AND_ORGANIZATION ( #28, #136 ) ;
#160 = CARTESIAN_POINT ( 'NONE',  ( 4.857225732735059864E-14, 0.000000000000000000, 15.00000000000001421 ) ) ;
#161 = APPROVAL_STATUS ( 'not_yet_approved' ) ;
#162 = VECTOR ( 'NONE', #77, 1000.000000000000000 ) ;
#163 = PERSON_AND_ORGANIZATION_ROLE ( 'creator' ) ;
#164 = AXIS2_PLACEMENT_3D ( 'NONE', #80, #21, #145 ) ;
#165 = LOCAL_TIME ( 8, 22, 11.00000000000000000, #128 ) ;
#166 = EDGE_LOOP ( 'NONE', ( #91, #29, #151, #196 ) ) ;
#167 = PRODUCT_DEFINITION_SHAPE ( 'NONE', 'NONE',  #18 ) ;
#168 = EDGE_CURVE ( 'NONE', #169, #73, #88, .T. ) ;
#169 = VERTEX_POINT ( 'NONE', #176 ) ;
#170 = AXIS2_PLACEMENT_3D ( 'NONE', #62, #142, #124 ) ;
#171 = DIRECTION ( 'NONE',  ( 0.000000000000000000, -1.000000000000000000, -0.000000000000000000 ) ) ;
#172 = EDGE_LOOP ( 'NONE', ( #32, #71, #131 ) ) ;
#173 = APPROVAL_ROLE ( '' ) ;
#174 = APPROVAL ( #161, 'UNSPECIFIED' ) ;
#175 = VERTEX_POINT ( 'NONE', #75 ) ;
#176 = CARTESIAN_POINT ( 'NONE',  ( -50.79999999999989768, 0.000000000000000000, 15.00000000000001421 ) ) ;
#177 = PERSON_AND_ORGANIZATION_ROLE ( 'design_supplier' ) ;
#178 = DIRECTION ( 'NONE',  ( 0.000000000000000000, -1.000000000000000000, -0.000000000000000000 ) ) ;
#179 = PERSON_AND_ORGANIZATION ( #28, #136 ) ;
#180 = CC_DESIGN_APPROVAL ( #102, ( #18 ) ) ;
#181 = CLOSED_SHELL ( 'NONE', ( #58, #56, #201, #129, #40 ) ) ;
#182 = DIRECTION ( 'NONE',  ( 0.000000000000000000, 0.000000000000000000, 1.000000000000000000 ) ) ;
#183 = APPLICATION_PROTOCOL_DEFINITION ( 'international standard', 'config_control_design', 1994, #188 ) ;
#184 = EDGE_CURVE ( 'NONE', #169, #14, #81, .T. ) ;
#185 = LINE ( 'NONE', #135, #195 ) ;
#186 = APPROVAL_STATUS ( 'not_yet_approved' ) ;
#187 = DIRECTION ( 'NONE',  ( 0.000000000000000000, 0.000000000000000000, 1.000000000000000000 ) ) ;
#188 = APPLICATION_CONTEXT ( 'configuration controlled 3d designs of mechanical parts and assemblies' ) ;
#189 = APPROVAL_DATE_TIME ( #3, #102 ) ;
#190 = FACE_OUTER_BOUND ( 'NONE', #172, .T. ) ;
#191 = CALENDAR_DATE ( 2021, 26, 2 ) ;
#192 = DATE_AND_TIME ( #5, #165 ) ;
#193 = SECURITY_CLASSIFICATION ( '', '', #35 ) ;
#194 = LOCAL_TIME ( 8, 22, 11.00000000000000000, #101 ) ;
#195 = VECTOR ( 'NONE', #197, 1000.000000000000000 ) ;
#196 = ORIENTED_EDGE ( 'NONE', *, *, #78, .T. ) ;
#197 = DIRECTION ( 'NONE',  ( -0.000000000000000000, -0.000000000000000000, -1.000000000000000000 ) ) ;
#198 = AXIS2_PLACEMENT_3D ( 'NONE', #52, #182, #107 ) ;
#199 = APPROVAL_PERSON_ORGANIZATION ( #49, #174, #110 ) ;
#200 = CARTESIAN_POINT ( 'NONE',  ( 4.857225732735059864E-14, 0.000000000000000000, 411.7610868016167274 ) ) ;
#201 = ADVANCED_FACE ( 'NONE', ( #17 ), #8, .T. ) ;
ENDSEC;
END-ISO-10303-21;
