ISO-10303-21;
HEADER;
FILE_DESCRIPTION (( 'STEP AP203' ),
    '1' );
FILE_NAME ('010-0808E_N-BK7_PCV_window.STEP',
    '2021-02-26T06:21:44',
    ( '' ),
    ( '' ),
    'SwSTEP 2.0',
    'SolidWorks 2019',
    '' );
FILE_SCHEMA (( 'CONFIG_CONTROL_DESIGN' ));
ENDSEC;

DATA;
#1 = ADVANCED_FACE ( 'NONE', ( #29 ), #11, .F. ) ;
#2 = DIRECTION ( 'NONE',  ( 0.000000000000000000, -1.000000000000000000, -0.000000000000000000 ) ) ;
#3 = DIRECTION ( 'NONE',  ( 1.000000000000000000, 0.000000000000000000, 0.000000000000000000 ) ) ;
#4 = PERSON_AND_ORGANIZATION ( #132, #61 ) ;
#5 = DATE_TIME_ROLE ( 'classification_date' ) ;
#6 = DATE_AND_TIME ( #150, #86 ) ;
#7 = VECTOR ( 'NONE', #128, 1000.000000000000000 ) ;
#8 = CALENDAR_DATE ( 2021, 26, 2 ) ;
#9 = DIRECTION ( 'NONE',  ( 1.000000000000000000, 0.000000000000000000, 0.000000000000000000 ) ) ;
#10 = EDGE_LOOP ( 'NONE', ( #156, #69 ) ) ;
#11 = SPHERICAL_SURFACE ( 'NONE', #83, 300.0000000000000000 ) ;
#12 = ADVANCED_BREP_SHAPE_REPRESENTATION ( '010-0808E_N-BK7_PCV_window', ( #91, #178 ), #126 ) ;
#13 = ORIENTED_EDGE ( 'NONE', *, *, #77, .F. ) ;
#14 = DIRECTION ( 'NONE',  ( 0.000000000000000000, 0.000000000000000000, 1.000000000000000000 ) ) ;
#15 = DESIGN_CONTEXT ( 'detailed design', #106, 'design' ) ;
#16 = AXIS2_PLACEMENT_3D ( 'NONE', #125, #188, #3 ) ;
#17 = CC_DESIGN_APPROVAL ( #182, ( #172 ) ) ;
#18 = CYLINDRICAL_SURFACE ( 'NONE', #109, 50.79999999999999716 ) ;
#19 = EDGE_CURVE ( 'NONE', #39, #30, #104, .T. ) ;
#20 = DIRECTION ( 'NONE',  ( 0.000000000000000000, 0.000000000000000000, 1.000000000000000000 ) ) ;
#21 = CARTESIAN_POINT ( 'NONE',  ( -50.79999999999999716, 0.000000000000000000, 0.000000000000000000 ) ) ;
#22 = PERSON_AND_ORGANIZATION ( #132, #61 ) ;
#23 = COORDINATED_UNIVERSAL_TIME_OFFSET ( 2, 0, .AHEAD. ) ;
#24 = DATE_AND_TIME ( #166, #43 ) ;
#25 = ORIENTED_EDGE ( 'NONE', *, *, #138, .T. ) ;
#26 = ADVANCED_FACE ( 'NONE', ( #54 ), #123, .T. ) ;
#27 = ORIENTED_EDGE ( 'NONE', *, *, #89, .T. ) ;
#28 = CC_DESIGN_APPROVAL ( #70, ( #161 ) ) ;
#29 = FACE_OUTER_BOUND ( 'NONE', #37, .T. ) ;
#30 = VERTEX_POINT ( 'NONE', #160 ) ;
#31 = CIRCLE ( 'NONE', #145, 50.79999999999999716 ) ;
#32 = LOCAL_TIME ( 8, 21, 44.00000000000000000, #177 ) ;
#33 = CARTESIAN_POINT ( 'NONE',  ( 3.469446951953614189E-14, 0.000000000000000000, 310.6676512572858542 ) ) ;
#34 = CARTESIAN_POINT ( 'NONE',  ( -50.79999999999999716, 0.000000000000000000, 15.00000000000000000 ) ) ;
#35 = APPROVAL_DATE_TIME ( #51, #48 ) ;
#36 = APPROVAL_STATUS ( 'not_yet_approved' ) ;
#37 = EDGE_LOOP ( 'NONE', ( #140, #27, #53 ) ) ;
#38 = ADVANCED_FACE ( 'NONE', ( #144 ), #18, .T. ) ;
#39 = VERTEX_POINT ( 'NONE', #47 ) ;
#40 = CIRCLE ( 'NONE', #60, 50.79999999999994742 ) ;
#41 =( LENGTH_UNIT ( ) NAMED_UNIT ( * ) SI_UNIT ( .MILLI., .METRE. ) );
#42 = ORIENTED_EDGE ( 'NONE', *, *, #46, .T. ) ;
#43 = LOCAL_TIME ( 8, 21, 44.00000000000000000, #96 ) ;
#44 = ORIENTED_EDGE ( 'NONE', *, *, #187, .T. ) ;
#45 = CC_DESIGN_DATE_AND_TIME_ASSIGNMENT ( #95, #52, ( #172 ) ) ;
#46 = EDGE_CURVE ( 'NONE', #167, #30, #31, .T. ) ;
#47 = CARTESIAN_POINT ( 'NONE',  ( 50.79999999999998295, 6.221205739668552942E-15, 15.00000000000001421 ) ) ;
#48 = APPROVAL ( #62, 'UNSPECIFIED' ) ;
#49 = CARTESIAN_POINT ( 'NONE',  ( -50.79999999999991189, 0.000000000000000000, 15.00000000000001421 ) ) ;
#50 = FACE_OUTER_BOUND ( 'NONE', #10, .T. ) ;
#51 = DATE_AND_TIME ( #176, #75 ) ;
#52 = DATE_TIME_ROLE ( 'creation_date' ) ;
#53 = ORIENTED_EDGE ( 'NONE', *, *, #118, .F. ) ;
#54 = FACE_OUTER_BOUND ( 'NONE', #180, .T. ) ;
#55 = EDGE_CURVE ( 'NONE', #30, #167, #105, .T. ) ;
#56 = APPROVAL_PERSON_ORGANIZATION ( #192, #182, #81 ) ;
#57 = DIRECTION ( 'NONE',  ( -0.000000000000000000, -0.000000000000000000, -1.000000000000000000 ) ) ;
#58 = DIRECTION ( 'NONE',  ( 0.000000000000000000, 1.000000000000000000, -0.000000000000000000 ) ) ;
#59 = DIRECTION ( 'NONE',  ( 1.000000000000000000, 0.000000000000000000, 0.000000000000000000 ) ) ;
#60 = AXIS2_PLACEMENT_3D ( 'NONE', #191, #99, #120 ) ;
#61 = ORGANIZATION ( 'UNSPECIFIED', 'UNSPECIFIED', '' ) ;
#62 = APPROVAL_STATUS ( 'not_yet_approved' ) ;
#63 = SHAPE_DEFINITION_REPRESENTATION ( #108, #12 ) ;
#64 = AXIS2_PLACEMENT_3D ( 'NONE', #146, #174, #112 ) ;
#65 = CALENDAR_DATE ( 2021, 26, 2 ) ;
#66 = DATE_AND_TIME ( #8, #173 ) ;
#67 = APPLICATION_PROTOCOL_DEFINITION ( 'international standard', 'config_control_design', 1994, #141 ) ;
#68 = APPROVAL_PERSON_ORGANIZATION ( #151, #70, #149 ) ;
#69 = ORIENTED_EDGE ( 'NONE', *, *, #55, .F. ) ;
#70 = APPROVAL ( #80, 'UNSPECIFIED' ) ;
#71 = DIRECTION ( 'NONE',  ( 0.000000000000000000, -1.000000000000000000, -0.000000000000000000 ) ) ;
#72 = VERTEX_POINT ( 'NONE', #76 ) ;
#73 = ADVANCED_FACE ( 'NONE', ( #50 ), #147, .F. ) ;
#74 = DIRECTION ( 'NONE',  ( 1.000000000000000000, 0.000000000000000000, 0.000000000000000000 ) ) ;
#75 = LOCAL_TIME ( 8, 21, 44.00000000000000000, #130 ) ;
#76 = CARTESIAN_POINT ( 'NONE',  ( 5.306417150674643935E-14, 0.000000000000000000, 10.66765125728585950 ) ) ;
#77 = EDGE_CURVE ( 'NONE', #153, #167, #175, .T. ) ;
#78 = CARTESIAN_POINT ( 'NONE',  ( 3.469446951953614189E-14, 0.000000000000000000, 310.6676512572858542 ) ) ;
#79 = PERSON_AND_ORGANIZATION_ROLE ( 'design_supplier' ) ;
#80 = APPROVAL_STATUS ( 'not_yet_approved' ) ;
#81 = APPROVAL_ROLE ( '' ) ;
#82 = PERSON_AND_ORGANIZATION_ROLE ( 'classification_officer' ) ;
#83 = AXIS2_PLACEMENT_3D ( 'NONE', #197, #71, #157 ) ;
#84 = ORIENTED_EDGE ( 'NONE', *, *, #89, .F. ) ;
#85 = DIRECTION ( 'NONE',  ( 0.000000000000000000, 0.000000000000000000, 1.000000000000000000 ) ) ;
#86 = LOCAL_TIME ( 8, 21, 44.00000000000000000, #23 ) ;
#87 = ORIENTED_EDGE ( 'NONE', *, *, #77, .T. ) ;
#88 = ADVANCED_FACE ( 'NONE', ( #111 ), #90, .F. ) ;
#89 = EDGE_CURVE ( 'NONE', #153, #72, #189, .T. ) ;
#90 = SPHERICAL_SURFACE ( 'NONE', #152, 300.0000000000000000 ) ;
#91 = MANIFOLD_SOLID_BREP ( 'Cut-Revolve1', #171 ) ;
#92 = DIRECTION ( 'NONE',  ( 1.224646799147353207E-16, -1.000000000000000000, 0.000000000000000000 ) ) ;
#93 = CARTESIAN_POINT ( 'NONE',  ( 3.469446951953614189E-14, 0.000000000000000000, 310.6676512572858542 ) ) ;
#94 = PERSON_AND_ORGANIZATION ( #132, #61 ) ;
#95 = DATE_AND_TIME ( #65, #32 ) ;
#96 = COORDINATED_UNIVERSAL_TIME_OFFSET ( 2, 0, .AHEAD. ) ;
#97 = ORIENTED_EDGE ( 'NONE', *, *, #138, .F. ) ;
#98 = CC_DESIGN_DATE_AND_TIME_ASSIGNMENT ( #24, #5, ( #161 ) ) ;
#99 = DIRECTION ( 'NONE',  ( -0.000000000000000000, -0.000000000000000000, -1.000000000000000000 ) ) ;
#100 = CIRCLE ( 'NONE', #16, 50.79999999999994742 ) ;
#101 =( NAMED_UNIT ( * ) SI_UNIT ( $, .STERADIAN. ) SOLID_ANGLE_UNIT ( ) );
#102 = PRODUCT_DEFINITION_FORMATION_WITH_SPECIFIED_SOURCE ( 'ANY', '', #183, .NOT_KNOWN. ) ;
#103 = CARTESIAN_POINT ( 'NONE',  ( 0.000000000000000000, 0.000000000000000000, 15.00000000000000000 ) ) ;
#104 = LINE ( 'NONE', #121, #181 ) ;
#105 = CIRCLE ( 'NONE', #134, 50.79999999999999716 ) ;
#106 = APPLICATION_CONTEXT ( 'configuration controlled 3d designs of mechanical parts and assemblies' ) ;
#107 = PRODUCT_RELATED_PRODUCT_CATEGORY ( 'detail', '', ( #183 ) ) ;
#108 = PRODUCT_DEFINITION_SHAPE ( 'NONE', 'NONE',  #172 ) ;
#109 = AXIS2_PLACEMENT_3D ( 'NONE', #200, #57, #184 ) ;
#110 = AXIS2_PLACEMENT_3D ( 'NONE', #93, #58, #20 ) ;
#111 = FACE_OUTER_BOUND ( 'NONE', #154, .T. ) ;
#112 = DIRECTION ( 'NONE',  ( 1.000000000000000000, 0.000000000000000000, -0.000000000000000000 ) ) ;
#113 = APPROVAL_DATE_TIME ( #6, #182 ) ;
#114 = APPROVAL_DATE_TIME ( #66, #70 ) ;
#115 = PERSON_AND_ORGANIZATION ( #132, #61 ) ;
#116 = ORIENTED_EDGE ( 'NONE', *, *, #55, .T. ) ;
#117 = PERSON_AND_ORGANIZATION ( #132, #61 ) ;
#118 = EDGE_CURVE ( 'NONE', #39, #72, #127, .T. ) ;
#119 = EDGE_LOOP ( 'NONE', ( #196, #25, #87, #42 ) ) ;
#120 = DIRECTION ( 'NONE',  ( 1.000000000000000000, 0.000000000000000000, 0.000000000000000000 ) ) ;
#121 = CARTESIAN_POINT ( 'NONE',  ( 50.79999999999999716, 6.221205739668553730E-15, 15.00000000000000000 ) ) ;
#122 = ORIENTED_EDGE ( 'NONE', *, *, #118, .T. ) ;
#123 = CYLINDRICAL_SURFACE ( 'NONE', #201, 50.79999999999999716 ) ;
#124 = CARTESIAN_POINT ( 'NONE',  ( 0.000000000000000000, 0.000000000000000000, 0.000000000000000000 ) ) ;
#125 = CARTESIAN_POINT ( 'NONE',  ( 3.469446951953614189E-14, 0.000000000000000000, 15.00000000000001421 ) ) ;
#126 =( GEOMETRIC_REPRESENTATION_CONTEXT ( 3 ) GLOBAL_UNCERTAINTY_ASSIGNED_CONTEXT ( ( #185 ) ) GLOBAL_UNIT_ASSIGNED_CONTEXT ( ( #41, #179, #101 ) ) REPRESENTATION_CONTEXT ( 'NONE', 'WORKASPACE' ) );
#127 = CIRCLE ( 'NONE', #110, 300.0000000000000000 ) ;
#128 = DIRECTION ( 'NONE',  ( -0.000000000000000000, -0.000000000000000000, -1.000000000000000000 ) ) ;
#129 = CC_DESIGN_PERSON_AND_ORGANIZATION_ASSIGNMENT ( #94, #164, ( #102 ) ) ;
#130 = COORDINATED_UNIVERSAL_TIME_OFFSET ( 2, 0, .AHEAD. ) ;
#131 = APPROVAL_PERSON_ORGANIZATION ( #115, #48, #135 ) ;
#132 = PERSON ( 'UNSPECIFIED', 'UNSPECIFIED', 'UNSPECIFIED', ('UNSPECIFIED'), ('UNSPECIFIED'), ('UNSPECIFIED') ) ;
#133 = PERSON_AND_ORGANIZATION_ROLE ( 'design_owner' ) ;
#134 = AXIS2_PLACEMENT_3D ( 'NONE', #169, #14, #74 ) ;
#135 = APPROVAL_ROLE ( '' ) ;
#136 = PERSON_AND_ORGANIZATION ( #132, #61 ) ;
#137 = ORIENTED_EDGE ( 'NONE', *, *, #19, .T. ) ;
#138 = EDGE_CURVE ( 'NONE', #39, #153, #100, .T. ) ;
#139 = MECHANICAL_CONTEXT ( 'NONE', #141, 'mechanical' ) ;
#140 = ORIENTED_EDGE ( 'NONE', *, *, #187, .F. ) ;
#141 = APPLICATION_CONTEXT ( 'configuration controlled 3d designs of mechanical parts and assemblies' ) ;
#142 = DIRECTION ( 'NONE',  ( -0.000000000000000000, -0.000000000000000000, -1.000000000000000000 ) ) ;
#143 = CC_DESIGN_PERSON_AND_ORGANIZATION_ASSIGNMENT ( #4, #193, ( #172 ) ) ;
#144 = FACE_OUTER_BOUND ( 'NONE', #119, .T. ) ;
#145 = AXIS2_PLACEMENT_3D ( 'NONE', #124, #186, #170 ) ;
#146 = CARTESIAN_POINT ( 'NONE',  ( 0.000000000000000000, 0.000000000000000000, 0.000000000000000000 ) ) ;
#147 = PLANE ( 'NONE',  #64 ) ;
#148 = SECURITY_CLASSIFICATION_LEVEL ( 'unclassified' ) ;
#149 = APPROVAL_ROLE ( '' ) ;
#150 = CALENDAR_DATE ( 2021, 26, 2 ) ;
#151 = PERSON_AND_ORGANIZATION ( #132, #61 ) ;
#152 = AXIS2_PLACEMENT_3D ( 'NONE', #78, #2, #59 ) ;
#153 = VERTEX_POINT ( 'NONE', #49 ) ;
#154 = EDGE_LOOP ( 'NONE', ( #84, #97, #122 ) ) ;
#155 = CC_DESIGN_APPROVAL ( #48, ( #102 ) ) ;
#156 = ORIENTED_EDGE ( 'NONE', *, *, #46, .F. ) ;
#157 = DIRECTION ( 'NONE',  ( 1.000000000000000000, 0.000000000000000000, 0.000000000000000000 ) ) ;
#158 = CC_DESIGN_PERSON_AND_ORGANIZATION_ASSIGNMENT ( #117, #133, ( #183 ) ) ;
#159 = DIRECTION ( 'NONE',  ( -1.000000000000000000, 0.000000000000000000, 0.000000000000000000 ) ) ;
#160 = CARTESIAN_POINT ( 'NONE',  ( 50.79999999999999716, 6.221205739668553730E-15, 0.000000000000000000 ) ) ;
#161 = SECURITY_CLASSIFICATION ( '', '', #148 ) ;
#162 = CC_DESIGN_PERSON_AND_ORGANIZATION_ASSIGNMENT ( #22, #79, ( #102 ) ) ;
#163 = DIRECTION ( 'NONE',  ( 1.000000000000000000, 1.224646799147353207E-16, 0.000000000000000000 ) ) ;
#164 = PERSON_AND_ORGANIZATION_ROLE ( 'creator' ) ;
#165 = APPLICATION_PROTOCOL_DEFINITION ( 'international standard', 'config_control_design', 1994, #106 ) ;
#166 = CALENDAR_DATE ( 2021, 26, 2 ) ;
#167 = VERTEX_POINT ( 'NONE', #21 ) ;
#168 = CC_DESIGN_PERSON_AND_ORGANIZATION_ASSIGNMENT ( #136, #82, ( #161 ) ) ;
#169 = CARTESIAN_POINT ( 'NONE',  ( 0.000000000000000000, 0.000000000000000000, 0.000000000000000000 ) ) ;
#170 = DIRECTION ( 'NONE',  ( 1.000000000000000000, 0.000000000000000000, 0.000000000000000000 ) ) ;
#171 = CLOSED_SHELL ( 'NONE', ( #1, #26, #38, #73, #88 ) ) ;
#172 = PRODUCT_DEFINITION ( 'UNKNOWN', '', #102, #15 ) ;
#173 = LOCAL_TIME ( 8, 21, 44.00000000000000000, #194 ) ;
#174 = DIRECTION ( 'NONE',  ( 0.000000000000000000, 0.000000000000000000, 1.000000000000000000 ) ) ;
#175 = LINE ( 'NONE', #34, #7 ) ;
#176 = CALENDAR_DATE ( 2021, 26, 2 ) ;
#177 = COORDINATED_UNIVERSAL_TIME_OFFSET ( 2, 0, .AHEAD. ) ;
#178 = AXIS2_PLACEMENT_3D ( 'NONE', #195, #85, #9 ) ;
#179 =( NAMED_UNIT ( * ) PLANE_ANGLE_UNIT ( ) SI_UNIT ( $, .RADIAN. ) );
#180 = EDGE_LOOP ( 'NONE', ( #44, #137, #116, #13 ) ) ;
#181 = VECTOR ( 'NONE', #142, 1000.000000000000000 ) ;
#182 = APPROVAL ( #36, 'UNSPECIFIED' ) ;
#183 = PRODUCT ( '010-0808E_N-BK7_PCV_window', '010-0808E_N-BK7_PCV_window', '', ( #139 ) ) ;
#184 = DIRECTION ( 'NONE',  ( -1.000000000000000000, 0.000000000000000000, 0.000000000000000000 ) ) ;
#185 = UNCERTAINTY_MEASURE_WITH_UNIT (LENGTH_MEASURE( 1.000000000000000082E-05 ), #41, 'distance_accuracy_value', 'NONE');
#186 = DIRECTION ( 'NONE',  ( 0.000000000000000000, 0.000000000000000000, 1.000000000000000000 ) ) ;
#187 = EDGE_CURVE ( 'NONE', #153, #39, #40, .T. ) ;
#188 = DIRECTION ( 'NONE',  ( -0.000000000000000000, -0.000000000000000000, -1.000000000000000000 ) ) ;
#189 = CIRCLE ( 'NONE', #198, 300.0000000000000000 ) ;
#190 = CC_DESIGN_SECURITY_CLASSIFICATION ( #161, ( #102 ) ) ;
#191 = CARTESIAN_POINT ( 'NONE',  ( 3.469446951953614189E-14, 0.000000000000000000, 15.00000000000001421 ) ) ;
#192 = PERSON_AND_ORGANIZATION ( #132, #61 ) ;
#193 = PERSON_AND_ORGANIZATION_ROLE ( 'creator' ) ;
#194 = COORDINATED_UNIVERSAL_TIME_OFFSET ( 2, 0, .AHEAD. ) ;
#195 = CARTESIAN_POINT ( 'NONE',  ( 0.000000000000000000, 0.000000000000000000, 0.000000000000000000 ) ) ;
#196 = ORIENTED_EDGE ( 'NONE', *, *, #19, .F. ) ;
#197 = CARTESIAN_POINT ( 'NONE',  ( 3.469446951953614189E-14, 0.000000000000000000, 310.6676512572858542 ) ) ;
#198 = AXIS2_PLACEMENT_3D ( 'NONE', #33, #92, #163 ) ;
#199 = DIRECTION ( 'NONE',  ( -0.000000000000000000, -0.000000000000000000, -1.000000000000000000 ) ) ;
#200 = CARTESIAN_POINT ( 'NONE',  ( 0.000000000000000000, 0.000000000000000000, 15.00000000000000000 ) ) ;
#201 = AXIS2_PLACEMENT_3D ( 'NONE', #103, #199, #159 ) ;
ENDSEC;
END-ISO-10303-21;
