ISO-10303-21;
HEADER;
FILE_DESCRIPTION (( 'STEP AP203' ),
    '1' );
FILE_NAME ('010-0745E_N-BK7_PCV_window.STEP',
    '2021-02-26T06:15:25',
    ( '' ),
    ( '' ),
    'SwSTEP 2.0',
    'SolidWorks 2019',
    '' );
FILE_SCHEMA (( 'CONFIG_CONTROL_DESIGN' ));
ENDSEC;

DATA;
#1 = FACE_OUTER_BOUND ( 'NONE', #87, .T. ) ;
#2 = CARTESIAN_POINT ( 'NONE',  ( 38.10000000000000142, 4.665904304751416087E-15, 0.000000000000000000 ) ) ;
#3 = DIRECTION ( 'NONE',  ( 0.000000000000000000, 0.000000000000000000, 1.000000000000000000 ) ) ;
#4 = CARTESIAN_POINT ( 'NONE',  ( 3.677613769070831040E-13, 0.000000000000000000, 3012.458055243788749 ) ) ;
#5 = LINE ( 'NONE', #128, #96 ) ;
#6 = CARTESIAN_POINT ( 'NONE',  ( 0.000000000000000000, 0.000000000000000000, 0.000000000000000000 ) ) ;
#7 = ORGANIZATION ( 'UNSPECIFIED', 'UNSPECIFIED', '' ) ;
#8 = PERSON_AND_ORGANIZATION ( #69, #7 ) ;
#9 = CC_DESIGN_PERSON_AND_ORGANIZATION_ASSIGNMENT ( #98, #115, ( #174 ) ) ;
#10 = APPROVAL_DATE_TIME ( #114, #72 ) ;
#11 = AXIS2_PLACEMENT_3D ( 'NONE', #27, #156, #16 ) ;
#12 = CC_DESIGN_PERSON_AND_ORGANIZATION_ASSIGNMENT ( #163, #148, ( #129 ) ) ;
#13 = LOCAL_TIME ( 8, 15, 25.00000000000000000, #83 ) ;
#14 = CARTESIAN_POINT ( 'NONE',  ( 3.677613769070831040E-13, 0.000000000000000000, 3012.458055243788749 ) ) ;
#15 = FACE_OUTER_BOUND ( 'NONE', #137, .T. ) ;
#16 = DIRECTION ( 'NONE',  ( -1.000000000000000000, 0.000000000000000000, 0.000000000000000000 ) ) ;
#17 = LOCAL_TIME ( 8, 15, 25.00000000000000000, #67 ) ;
#18 = CALENDAR_DATE ( 2021, 26, 2 ) ;
#19 = APPROVAL_DATE_TIME ( #176, #58 ) ;
#20 = DATE_TIME_ROLE ( 'classification_date' ) ;
#21 = COORDINATED_UNIVERSAL_TIME_OFFSET ( 2, 0, .AHEAD. ) ;
#22 = EDGE_CURVE ( 'NONE', #104, #23, #40, .T. ) ;
#23 = VERTEX_POINT ( 'NONE', #63 ) ;
#24 = LOCAL_TIME ( 8, 15, 25.00000000000000000, #95 ) ;
#25 = ORIENTED_EDGE ( 'NONE', *, *, #120, .T. ) ;
#26 =( NAMED_UNIT ( * ) SI_UNIT ( $, .STERADIAN. ) SOLID_ANGLE_UNIT ( ) );
#27 = CARTESIAN_POINT ( 'NONE',  ( 0.000000000000000000, 0.000000000000000000, 12.69999999999999929 ) ) ;
#28 = FACE_OUTER_BOUND ( 'NONE', #167, .T. ) ;
#29 = EDGE_CURVE ( 'NONE', #104, #105, #5, .T. ) ;
#30 = CARTESIAN_POINT ( 'NONE',  ( 3.677613769070831040E-13, 0.000000000000000000, 12.70000000000015561 ) ) ;
#31 = PERSON_AND_ORGANIZATION ( #69, #7 ) ;
#32 = APPLICATION_PROTOCOL_DEFINITION ( 'international standard', 'config_control_design', 1994, #61 ) ;
#33 = CC_DESIGN_DATE_AND_TIME_ASSIGNMENT ( #180, #20, ( #103 ) ) ;
#34 = APPLICATION_PROTOCOL_DEFINITION ( 'international standard', 'config_control_design', 1994, #76 ) ;
#35 = AXIS2_PLACEMENT_3D ( 'NONE', #152, #139, #43 ) ;
#36 = VERTEX_POINT ( 'NONE', #190 ) ;
#37 = EDGE_CURVE ( 'NONE', #36, #75, #110, .T. ) ;
#38 = ORIENTED_EDGE ( 'NONE', *, *, #22, .T. ) ;
#39 = ORIENTED_EDGE ( 'NONE', *, *, #22, .F. ) ;
#40 = CIRCLE ( 'NONE', #35, 3000.000000000000000 ) ;
#41 = ORIENTED_EDGE ( 'NONE', *, *, #29, .T. ) ;
#42 = ADVANCED_FACE ( 'NONE', ( #44 ), #79, .F. ) ;
#43 = DIRECTION ( 'NONE',  ( 1.000000000000000000, 1.224646799147353207E-16, 0.000000000000000000 ) ) ;
#44 = FACE_OUTER_BOUND ( 'NONE', #201, .T. ) ;
#45 = CIRCLE ( 'NONE', #51, 38.10000000004870913 ) ;
#46 = DIRECTION ( 'NONE',  ( 0.000000000000000000, -1.000000000000000000, -0.000000000000000000 ) ) ;
#47 = DIRECTION ( 'NONE',  ( 0.000000000000000000, 0.000000000000000000, 1.000000000000000000 ) ) ;
#48 = DIRECTION ( 'NONE',  ( 1.000000000000000000, 0.000000000000000000, 0.000000000000000000 ) ) ;
#49 = APPROVAL_ROLE ( '' ) ;
#50 = PERSON_AND_ORGANIZATION ( #69, #7 ) ;
#51 = AXIS2_PLACEMENT_3D ( 'NONE', #30, #126, #62 ) ;
#52 = APPROVAL_DATE_TIME ( #150, #200 ) ;
#53 = PRODUCT_DEFINITION_SHAPE ( 'NONE', 'NONE',  #174 ) ;
#54 = DIRECTION ( 'NONE',  ( 1.000000000000000000, 0.000000000000000000, 0.000000000000000000 ) ) ;
#55 = PRODUCT_DEFINITION_FORMATION_WITH_SPECIFIED_SOURCE ( 'ANY', '', #129, .NOT_KNOWN. ) ;
#56 = ORIENTED_EDGE ( 'NONE', *, *, #120, .F. ) ;
#57 = ORIENTED_EDGE ( 'NONE', *, *, #29, .F. ) ;
#58 = APPROVAL ( #195, 'UNSPECIFIED' ) ;
#59 = APPROVAL_PERSON_ORGANIZATION ( #133, #58, #198 ) ;
#60 =( NAMED_UNIT ( * ) PLANE_ANGLE_UNIT ( ) SI_UNIT ( $, .RADIAN. ) );
#61 = APPLICATION_CONTEXT ( 'configuration controlled 3d designs of mechanical parts and assemblies' ) ;
#62 = DIRECTION ( 'NONE',  ( 1.000000000000000000, 0.000000000000000000, 0.000000000000000000 ) ) ;
#63 = CARTESIAN_POINT ( 'NONE',  ( 5.514583967791860282E-13, 0.000000000000000000, 12.45805524378873486 ) ) ;
#64 = AXIS2_PLACEMENT_3D ( 'NONE', #140, #161, #158 ) ;
#65 = DIRECTION ( 'NONE',  ( 0.000000000000000000, 0.000000000000000000, 1.000000000000000000 ) ) ;
#66 = CARTESIAN_POINT ( 'NONE',  ( 3.677613769070831040E-13, 0.000000000000000000, 12.70000000000015561 ) ) ;
#67 = COORDINATED_UNIVERSAL_TIME_OFFSET ( 2, 0, .AHEAD. ) ;
#68 = EDGE_CURVE ( 'NONE', #104, #36, #45, .T. ) ;
#69 = PERSON ( 'UNSPECIFIED', 'UNSPECIFIED', 'UNSPECIFIED', ('UNSPECIFIED'), ('UNSPECIFIED'), ('UNSPECIFIED') ) ;
#70 = APPROVAL_STATUS ( 'not_yet_approved' ) ;
#71 = CALENDAR_DATE ( 2021, 26, 2 ) ;
#72 = APPROVAL ( #147, 'UNSPECIFIED' ) ;
#73 = CIRCLE ( 'NONE', #77, 38.10000000004870913 ) ;
#74 = ORIENTED_EDGE ( 'NONE', *, *, #68, .F. ) ;
#75 = VERTEX_POINT ( 'NONE', #2 ) ;
#76 = APPLICATION_CONTEXT ( 'configuration controlled 3d designs of mechanical parts and assemblies' ) ;
#77 = AXIS2_PLACEMENT_3D ( 'NONE', #66, #192, #48 ) ;
#78 = DIRECTION ( 'NONE',  ( 1.000000000000000000, 0.000000000000000000, 0.000000000000000000 ) ) ;
#79 = SPHERICAL_SURFACE ( 'NONE', #188, 3000.000000000000000 ) ;
#80 = CYLINDRICAL_SURFACE ( 'NONE', #11, 38.10000000000000142 ) ;
#81 = DIRECTION ( 'NONE',  ( 0.000000000000000000, -1.000000000000000000, -0.000000000000000000 ) ) ;
#82 = LOCAL_TIME ( 8, 15, 25.00000000000000000, #146 ) ;
#83 = COORDINATED_UNIVERSAL_TIME_OFFSET ( 2, 0, .AHEAD. ) ;
#84 = PERSON_AND_ORGANIZATION_ROLE ( 'creator' ) ;
#85 = CC_DESIGN_APPROVAL ( #58, ( #55 ) ) ;
#86 = ORIENTED_EDGE ( 'NONE', *, *, #93, .T. ) ;
#87 = EDGE_LOOP ( 'NONE', ( #100, #168, #41, #25 ) ) ;
#88 = FACE_OUTER_BOUND ( 'NONE', #119, .T. ) ;
#89 = AXIS2_PLACEMENT_3D ( 'NONE', #108, #91, #3 ) ;
#90 = DIRECTION ( 'NONE',  ( -0.000000000000000000, -0.000000000000000000, -1.000000000000000000 ) ) ;
#91 = DIRECTION ( 'NONE',  ( 0.000000000000000000, 1.000000000000000000, -0.000000000000000000 ) ) ;
#92 = DIRECTION ( 'NONE',  ( 1.000000000000000000, 0.000000000000000000, -0.000000000000000000 ) ) ;
#93 = EDGE_CURVE ( 'NONE', #36, #23, #183, .T. ) ;
#94 =( LENGTH_UNIT ( ) NAMED_UNIT ( * ) SI_UNIT ( .MILLI., .METRE. ) );
#95 = COORDINATED_UNIVERSAL_TIME_OFFSET ( 2, 0, .AHEAD. ) ;
#96 = VECTOR ( 'NONE', #187, 1000.000000000000000 ) ;
#97 = SECURITY_CLASSIFICATION_LEVEL ( 'unclassified' ) ;
#98 = PERSON_AND_ORGANIZATION ( #69, #7 ) ;
#99 = CALENDAR_DATE ( 2021, 26, 2 ) ;
#100 = ORIENTED_EDGE ( 'NONE', *, *, #37, .F. ) ;
#101 = ORIENTED_EDGE ( 'NONE', *, *, #196, .T. ) ;
#102 = ADVANCED_FACE ( 'NONE', ( #88 ), #142, .F. ) ;
#103 = SECURITY_CLASSIFICATION ( '', '', #97 ) ;
#104 = VERTEX_POINT ( 'NONE', #171 ) ;
#105 = VERTEX_POINT ( 'NONE', #111 ) ;
#106 = DESIGN_CONTEXT ( 'detailed design', #76, 'design' ) ;
#107 = CYLINDRICAL_SURFACE ( 'NONE', #64, 38.10000000000000142 ) ;
#108 = CARTESIAN_POINT ( 'NONE',  ( 3.677613769070831040E-13, 0.000000000000000000, 3012.458055243788749 ) ) ;
#109 = APPROVAL_PERSON_ORGANIZATION ( #181, #72, #194 ) ;
#110 = LINE ( 'NONE', #125, #132 ) ;
#111 = CARTESIAN_POINT ( 'NONE',  ( -38.10000000000000142, 0.000000000000000000, 0.000000000000000000 ) ) ;
#112 = PRODUCT_RELATED_PRODUCT_CATEGORY ( 'detail', '', ( #129 ) ) ;
#113 = CARTESIAN_POINT ( 'NONE',  ( 0.000000000000000000, 0.000000000000000000, 0.000000000000000000 ) ) ;
#114 = DATE_AND_TIME ( #71, #17 ) ;
#115 = PERSON_AND_ORGANIZATION_ROLE ( 'creator' ) ;
#116 = APPROVAL_PERSON_ORGANIZATION ( #50, #200, #49 ) ;
#117 = CALENDAR_DATE ( 2021, 26, 2 ) ;
#118 = CALENDAR_DATE ( 2021, 26, 2 ) ;
#119 = EDGE_LOOP ( 'NONE', ( #56, #182 ) ) ;
#120 = EDGE_CURVE ( 'NONE', #105, #75, #166, .T. ) ;
#121 = ORIENTED_EDGE ( 'NONE', *, *, #37, .T. ) ;
#122 = ORIENTED_EDGE ( 'NONE', *, *, #193, .F. ) ;
#123 =( GEOMETRIC_REPRESENTATION_CONTEXT ( 3 ) GLOBAL_UNCERTAINTY_ASSIGNED_CONTEXT ( ( #199 ) ) GLOBAL_UNIT_ASSIGNED_CONTEXT ( ( #94, #60, #26 ) ) REPRESENTATION_CONTEXT ( 'NONE', 'WORKASPACE' ) );
#124 = CARTESIAN_POINT ( 'NONE',  ( 0.000000000000000000, 0.000000000000000000, 0.000000000000000000 ) ) ;
#125 = CARTESIAN_POINT ( 'NONE',  ( 38.10000000000000142, 4.665904304751416087E-15, 12.69999999999999929 ) ) ;
#126 = DIRECTION ( 'NONE',  ( -0.000000000000000000, -0.000000000000000000, -1.000000000000000000 ) ) ;
#127 = CC_DESIGN_PERSON_AND_ORGANIZATION_ASSIGNMENT ( #8, #175, ( #55 ) ) ;
#128 = CARTESIAN_POINT ( 'NONE',  ( -38.10000000000000142, 0.000000000000000000, 12.69999999999999929 ) ) ;
#129 = PRODUCT ( '010-0745E_N-BK7_PCV_window', '010-0745E_N-BK7_PCV_window', '', ( #197 ) ) ;
#130 = DIRECTION ( 'NONE',  ( 1.000000000000000000, 0.000000000000000000, 0.000000000000000000 ) ) ;
#131 = SHAPE_DEFINITION_REPRESENTATION ( #53, #191 ) ;
#132 = VECTOR ( 'NONE', #90, 1000.000000000000000 ) ;
#133 = PERSON_AND_ORGANIZATION ( #69, #7 ) ;
#134 = PERSON_AND_ORGANIZATION ( #69, #7 ) ;
#135 = CC_DESIGN_APPROVAL ( #72, ( #103 ) ) ;
#136 = CLOSED_SHELL ( 'NONE', ( #42, #141, #138, #102, #186 ) ) ;
#137 = EDGE_LOOP ( 'NONE', ( #154, #121, #101, #57 ) ) ;
#138 = ADVANCED_FACE ( 'NONE', ( #1 ), #80, .T. ) ;
#139 = DIRECTION ( 'NONE',  ( 1.224646799147353207E-16, -1.000000000000000000, 0.000000000000000000 ) ) ;
#140 = CARTESIAN_POINT ( 'NONE',  ( 0.000000000000000000, 0.000000000000000000, 12.69999999999999929 ) ) ;
#141 = ADVANCED_FACE ( 'NONE', ( #15 ), #107, .T. ) ;
#142 = PLANE ( 'NONE',  #153 ) ;
#143 = CC_DESIGN_APPROVAL ( #200, ( #174 ) ) ;
#144 = DIRECTION ( 'NONE',  ( 1.000000000000000000, 0.000000000000000000, 0.000000000000000000 ) ) ;
#145 = PERSON_AND_ORGANIZATION_ROLE ( 'classification_officer' ) ;
#146 = COORDINATED_UNIVERSAL_TIME_OFFSET ( 2, 0, .AHEAD. ) ;
#147 = APPROVAL_STATUS ( 'not_yet_approved' ) ;
#148 = PERSON_AND_ORGANIZATION_ROLE ( 'design_owner' ) ;
#149 = CC_DESIGN_PERSON_AND_ORGANIZATION_ASSIGNMENT ( #134, #145, ( #103 ) ) ;
#150 = DATE_AND_TIME ( #99, #24 ) ;
#151 = LOCAL_TIME ( 8, 15, 25.00000000000000000, #21 ) ;
#152 = CARTESIAN_POINT ( 'NONE',  ( 3.677613769070831040E-13, 0.000000000000000000, 3012.458055243788749 ) ) ;
#153 = AXIS2_PLACEMENT_3D ( 'NONE', #172, #47, #92 ) ;
#154 = ORIENTED_EDGE ( 'NONE', *, *, #68, .T. ) ;
#155 = AXIS2_PLACEMENT_3D ( 'NONE', #6, #165, #54 ) ;
#156 = DIRECTION ( 'NONE',  ( -0.000000000000000000, -0.000000000000000000, -1.000000000000000000 ) ) ;
#157 = SPHERICAL_SURFACE ( 'NONE', #159, 3000.000000000000000 ) ;
#158 = DIRECTION ( 'NONE',  ( -1.000000000000000000, 0.000000000000000000, 0.000000000000000000 ) ) ;
#159 = AXIS2_PLACEMENT_3D ( 'NONE', #4, #81, #144 ) ;
#160 = CC_DESIGN_SECURITY_CLASSIFICATION ( #103, ( #55 ) ) ;
#161 = DIRECTION ( 'NONE',  ( -0.000000000000000000, -0.000000000000000000, -1.000000000000000000 ) ) ;
#162 = AXIS2_PLACEMENT_3D ( 'NONE', #124, #65, #130 ) ;
#163 = PERSON_AND_ORGANIZATION ( #69, #7 ) ;
#164 = DATE_TIME_ROLE ( 'creation_date' ) ;
#165 = DIRECTION ( 'NONE',  ( 0.000000000000000000, 0.000000000000000000, 1.000000000000000000 ) ) ;
#166 = CIRCLE ( 'NONE', #162, 38.10000000000000142 ) ;
#167 = EDGE_LOOP ( 'NONE', ( #39, #122, #86 ) ) ;
#168 = ORIENTED_EDGE ( 'NONE', *, *, #193, .T. ) ;
#169 = CIRCLE ( 'NONE', #179, 38.10000000000000142 ) ;
#170 = CC_DESIGN_PERSON_AND_ORGANIZATION_ASSIGNMENT ( #31, #84, ( #55 ) ) ;
#171 = CARTESIAN_POINT ( 'NONE',  ( -38.10000000004834675, 0.000000000000000000, 12.70000000000015561 ) ) ;
#172 = CARTESIAN_POINT ( 'NONE',  ( 0.000000000000000000, 0.000000000000000000, 0.000000000000000000 ) ) ;
#173 = DIRECTION ( 'NONE',  ( 0.000000000000000000, 0.000000000000000000, 1.000000000000000000 ) ) ;
#174 = PRODUCT_DEFINITION ( 'UNKNOWN', '', #55, #106 ) ;
#175 = PERSON_AND_ORGANIZATION_ROLE ( 'design_supplier' ) ;
#176 = DATE_AND_TIME ( #18, #82 ) ;
#177 = DATE_AND_TIME ( #117, #151 ) ;
#178 = CC_DESIGN_DATE_AND_TIME_ASSIGNMENT ( #177, #164, ( #174 ) ) ;
#179 = AXIS2_PLACEMENT_3D ( 'NONE', #113, #173, #78 ) ;
#180 = DATE_AND_TIME ( #118, #13 ) ;
#181 = PERSON_AND_ORGANIZATION ( #69, #7 ) ;
#182 = ORIENTED_EDGE ( 'NONE', *, *, #196, .F. ) ;
#183 = CIRCLE ( 'NONE', #89, 3000.000000000000000 ) ;
#184 = MANIFOLD_SOLID_BREP ( 'Cut-Revolve1', #136 ) ;
#185 = ORIENTED_EDGE ( 'NONE', *, *, #93, .F. ) ;
#186 = ADVANCED_FACE ( 'NONE', ( #28 ), #157, .F. ) ;
#187 = DIRECTION ( 'NONE',  ( -0.000000000000000000, -0.000000000000000000, -1.000000000000000000 ) ) ;
#188 = AXIS2_PLACEMENT_3D ( 'NONE', #14, #46, #189 ) ;
#189 = DIRECTION ( 'NONE',  ( 1.000000000000000000, 0.000000000000000000, 0.000000000000000000 ) ) ;
#190 = CARTESIAN_POINT ( 'NONE',  ( 38.10000000004907861, 4.665904304757426418E-15, 12.70000000000015561 ) ) ;
#191 = ADVANCED_BREP_SHAPE_REPRESENTATION ( '010-0745E_N-BK7_PCV_window', ( #184, #155 ), #123 ) ;
#192 = DIRECTION ( 'NONE',  ( -0.000000000000000000, -0.000000000000000000, -1.000000000000000000 ) ) ;
#193 = EDGE_CURVE ( 'NONE', #36, #104, #73, .T. ) ;
#194 = APPROVAL_ROLE ( '' ) ;
#195 = APPROVAL_STATUS ( 'not_yet_approved' ) ;
#196 = EDGE_CURVE ( 'NONE', #75, #105, #169, .T. ) ;
#197 = MECHANICAL_CONTEXT ( 'NONE', #61, 'mechanical' ) ;
#198 = APPROVAL_ROLE ( '' ) ;
#199 = UNCERTAINTY_MEASURE_WITH_UNIT (LENGTH_MEASURE( 1.000000000000000082E-05 ), #94, 'distance_accuracy_value', 'NONE');
#200 = APPROVAL ( #70, 'UNSPECIFIED' ) ;
#201 = EDGE_LOOP ( 'NONE', ( #74, #38, #185 ) ) ;
ENDSEC;
END-ISO-10303-21;
