ISO-10303-21;
HEADER;
FILE_DESCRIPTION (( 'STEP AP203' ),
    '1' );
FILE_NAME ('010-0735E_N-BK7_PCV_window.STEP',
    '2021-02-26T06:14:27',
    ( '' ),
    ( '' ),
    'SwSTEP 2.0',
    'SolidWorks 2019',
    '' );
FILE_SCHEMA (( 'CONFIG_CONTROL_DESIGN' ));
ENDSEC;

DATA;
#1 = DIRECTION ( 'NONE',  ( 1.000000000000000000, 0.000000000000000000, -0.000000000000000000 ) ) ;
#2 = COORDINATED_UNIVERSAL_TIME_OFFSET ( 2, 0, .AHEAD. ) ;
#3 = DIRECTION ( 'NONE',  ( 1.224646799147353207E-16, -1.000000000000000000, 0.000000000000000000 ) ) ;
#4 = APPROVAL_DATE_TIME ( #80, #50 ) ;
#5 = FACE_OUTER_BOUND ( 'NONE', #107, .T. ) ;
#6 = DIRECTION ( 'NONE',  ( 1.000000000000000000, 0.000000000000000000, 0.000000000000000000 ) ) ;
#7 = CARTESIAN_POINT ( 'NONE',  ( 2.428612866367529932E-13, 0.000000000000000000, 2012.337064569468566 ) ) ;
#8 = LINE ( 'NONE', #66, #149 ) ;
#9 = EDGE_CURVE ( 'NONE', #39, #109, #57, .T. ) ;
#10 = PERSON_AND_ORGANIZATION ( #196, #81 ) ;
#11 = ADVANCED_BREP_SHAPE_REPRESENTATION ( '010-0735E_N-BK7_PCV_window', ( #128, #67 ), #201 ) ;
#12 = AXIS2_PLACEMENT_3D ( 'NONE', #7, #63, #65 ) ;
#13 = ORIENTED_EDGE ( 'NONE', *, *, #78, .T. ) ;
#14 = CC_DESIGN_PERSON_AND_ORGANIZATION_ASSIGNMENT ( #59, #35, ( #86 ) ) ;
#15 = APPROVAL_PERSON_ORGANIZATION ( #89, #156, #151 ) ;
#16 = LINE ( 'NONE', #58, #154 ) ;
#17 = MECHANICAL_CONTEXT ( 'NONE', #121, 'mechanical' ) ;
#18 = PRODUCT ( '010-0735E_N-BK7_PCV_window', '010-0735E_N-BK7_PCV_window', '', ( #17 ) ) ;
#19 = CARTESIAN_POINT ( 'NONE',  ( 0.000000000000000000, 0.000000000000000000, 12.69999999999999929 ) ) ;
#20 = PERSON_AND_ORGANIZATION ( #196, #81 ) ;
#21 = CC_DESIGN_APPROVAL ( #156, ( #169 ) ) ;
#22 =( LENGTH_UNIT ( ) NAMED_UNIT ( * ) SI_UNIT ( .MILLI., .METRE. ) );
#23 = DIRECTION ( 'NONE',  ( -0.000000000000000000, -0.000000000000000000, -1.000000000000000000 ) ) ;
#24 = CLOSED_SHELL ( 'NONE', ( #195, #43, #120, #172, #152 ) ) ;
#25 = CC_DESIGN_PERSON_AND_ORGANIZATION_ASSIGNMENT ( #10, #105, ( #136 ) ) ;
#26 = CARTESIAN_POINT ( 'NONE',  ( 2.428612866367529932E-13, 0.000000000000000000, 12.69999999999993356 ) ) ;
#27 = CALENDAR_DATE ( 2021, 26, 2 ) ;
#28 = DATE_TIME_ROLE ( 'classification_date' ) ;
#29 = ORIENTED_EDGE ( 'NONE', *, *, #61, .F. ) ;
#30 = EDGE_CURVE ( 'NONE', #70, #139, #41, .T. ) ;
#31 = ORIENTED_EDGE ( 'NONE', *, *, #143, .F. ) ;
#32 = LOCAL_TIME ( 8, 14, 27.00000000000000000, #174 ) ;
#33 = DIRECTION ( 'NONE',  ( -0.000000000000000000, -0.000000000000000000, -1.000000000000000000 ) ) ;
#34 = UNCERTAINTY_MEASURE_WITH_UNIT (LENGTH_MEASURE( 1.000000000000000082E-05 ), #22, 'distance_accuracy_value', 'NONE');
#35 = PERSON_AND_ORGANIZATION_ROLE ( 'creator' ) ;
#36 = SPHERICAL_SURFACE ( 'NONE', #74, 2000.000000000000000 ) ;
#37 = APPLICATION_PROTOCOL_DEFINITION ( 'international standard', 'config_control_design', 1994, #71 ) ;
#38 = ORIENTED_EDGE ( 'NONE', *, *, #159, .T. ) ;
#39 = VERTEX_POINT ( 'NONE', #191 ) ;
#40 =( NAMED_UNIT ( * ) PLANE_ANGLE_UNIT ( ) SI_UNIT ( $, .RADIAN. ) );
#41 = CIRCLE ( 'NONE', #161, 38.09999999999042331 ) ;
#42 = PERSON_AND_ORGANIZATION_ROLE ( 'creator' ) ;
#43 = ADVANCED_FACE ( 'NONE', ( #192 ), #176, .T. ) ;
#44 = ORIENTED_EDGE ( 'NONE', *, *, #61, .T. ) ;
#45 = APPROVAL_PERSON_ORGANIZATION ( #49, #111, #116 ) ;
#46 = CARTESIAN_POINT ( 'NONE',  ( 2.428612866367529932E-13, 0.000000000000000000, 2012.337064569468566 ) ) ;
#47 = APPROVAL_STATUS ( 'not_yet_approved' ) ;
#48 = CARTESIAN_POINT ( 'NONE',  ( 38.09999999999067199, 4.665904304750845740E-15, 12.69999999999993356 ) ) ;
#49 = PERSON_AND_ORGANIZATION ( #196, #81 ) ;
#50 = APPROVAL ( #47, 'UNSPECIFIED' ) ;
#51 = DIRECTION ( 'NONE',  ( -1.000000000000000000, 0.000000000000000000, 0.000000000000000000 ) ) ;
#52 = CARTESIAN_POINT ( 'NONE',  ( 0.000000000000000000, 0.000000000000000000, 12.69999999999999929 ) ) ;
#53 = CIRCLE ( 'NONE', #101, 2000.000000000000000 ) ;
#54 = APPROVAL_DATE_TIME ( #197, #156 ) ;
#55 = EDGE_LOOP ( 'NONE', ( #164, #44, #199, #168 ) ) ;
#56 = CC_DESIGN_PERSON_AND_ORGANIZATION_ASSIGNMENT ( #179, #42, ( #136 ) ) ;
#57 = CIRCLE ( 'NONE', #131, 38.10000000000000142 ) ;
#58 = CARTESIAN_POINT ( 'NONE',  ( -38.10000000000000142, 0.000000000000000000, 12.69999999999999929 ) ) ;
#59 = PERSON_AND_ORGANIZATION ( #196, #81 ) ;
#60 = DIRECTION ( 'NONE',  ( 1.000000000000000000, 1.224646799147353207E-16, 0.000000000000000000 ) ) ;
#61 = EDGE_CURVE ( 'NONE', #139, #39, #8, .T. ) ;
#62 = CIRCLE ( 'NONE', #183, 38.09999999999042331 ) ;
#63 = DIRECTION ( 'NONE',  ( 0.000000000000000000, -1.000000000000000000, -0.000000000000000000 ) ) ;
#64 = DIRECTION ( 'NONE',  ( -0.000000000000000000, -0.000000000000000000, -1.000000000000000000 ) ) ;
#65 = DIRECTION ( 'NONE',  ( 1.000000000000000000, 0.000000000000000000, 0.000000000000000000 ) ) ;
#66 = CARTESIAN_POINT ( 'NONE',  ( 38.10000000000000142, 4.665904304751416087E-15, 12.69999999999999929 ) ) ;
#67 = AXIS2_PLACEMENT_3D ( 'NONE', #84, #147, #160 ) ;
#68 = COORDINATED_UNIVERSAL_TIME_OFFSET ( 2, 0, .AHEAD. ) ;
#69 = AXIS2_PLACEMENT_3D ( 'NONE', #115, #140, #1 ) ;
#70 = VERTEX_POINT ( 'NONE', #135 ) ;
#71 = APPLICATION_CONTEXT ( 'configuration controlled 3d designs of mechanical parts and assemblies' ) ;
#72 = ORIENTED_EDGE ( 'NONE', *, *, #143, .T. ) ;
#73 = LOCAL_TIME ( 8, 14, 27.00000000000000000, #68 ) ;
#74 = AXIS2_PLACEMENT_3D ( 'NONE', #95, #92, #155 ) ;
#75 = PLANE ( 'NONE',  #69 ) ;
#76 = CALENDAR_DATE ( 2021, 26, 2 ) ;
#77 = CARTESIAN_POINT ( 'NONE',  ( 2.428612866367529932E-13, 0.000000000000000000, 2012.337064569468566 ) ) ;
#78 = EDGE_CURVE ( 'NONE', #109, #39, #190, .T. ) ;
#79 = DESIGN_CONTEXT ( 'detailed design', #71, 'design' ) ;
#80 = DATE_AND_TIME ( #76, #110 ) ;
#81 = ORGANIZATION ( 'UNSPECIFIED', 'UNSPECIFIED', '' ) ;
#82 = DATE_AND_TIME ( #193, #32 ) ;
#83 = CC_DESIGN_DATE_AND_TIME_ASSIGNMENT ( #122, #28, ( #169 ) ) ;
#84 = CARTESIAN_POINT ( 'NONE',  ( 0.000000000000000000, 0.000000000000000000, 0.000000000000000000 ) ) ;
#85 = DIRECTION ( 'NONE',  ( 1.000000000000000000, 0.000000000000000000, 0.000000000000000000 ) ) ;
#86 = PRODUCT_DEFINITION ( 'UNKNOWN', '', #136, #79 ) ;
#87 = AXIS2_PLACEMENT_3D ( 'NONE', #118, #99, #162 ) ;
#88 = SECURITY_CLASSIFICATION_LEVEL ( 'unclassified' ) ;
#89 = PERSON_AND_ORGANIZATION ( #196, #81 ) ;
#90 = ORIENTED_EDGE ( 'NONE', *, *, #102, .F. ) ;
#91 = ORIENTED_EDGE ( 'NONE', *, *, #9, .F. ) ;
#92 = DIRECTION ( 'NONE',  ( 0.000000000000000000, -1.000000000000000000, -0.000000000000000000 ) ) ;
#93 = CYLINDRICAL_SURFACE ( 'NONE', #163, 38.10000000000000142 ) ;
#94 = CALENDAR_DATE ( 2021, 26, 2 ) ;
#95 = CARTESIAN_POINT ( 'NONE',  ( 2.428612866367529932E-13, 0.000000000000000000, 2012.337064569468566 ) ) ;
#96 = DATE_AND_TIME ( #94, #97 ) ;
#97 = LOCAL_TIME ( 8, 14, 27.00000000000000000, #171 ) ;
#98 = PRODUCT_RELATED_PRODUCT_CATEGORY ( 'detail', '', ( #18 ) ) ;
#99 = DIRECTION ( 'NONE',  ( 0.000000000000000000, 0.000000000000000000, 1.000000000000000000 ) ) ;
#100 = EDGE_LOOP ( 'NONE', ( #181, #91 ) ) ;
#101 = AXIS2_PLACEMENT_3D ( 'NONE', #77, #3, #60 ) ;
#102 = EDGE_CURVE ( 'NONE', #139, #70, #62, .T. ) ;
#103 =( NAMED_UNIT ( * ) SI_UNIT ( $, .STERADIAN. ) SOLID_ANGLE_UNIT ( ) );
#104 = LOCAL_TIME ( 8, 14, 27.00000000000000000, #106 ) ;
#105 = PERSON_AND_ORGANIZATION_ROLE ( 'design_supplier' ) ;
#106 = COORDINATED_UNIVERSAL_TIME_OFFSET ( 2, 0, .AHEAD. ) ;
#107 = EDGE_LOOP ( 'NONE', ( #167, #72, #112 ) ) ;
#108 = CC_DESIGN_PERSON_AND_ORGANIZATION_ASSIGNMENT ( #166, #138, ( #169 ) ) ;
#109 = VERTEX_POINT ( 'NONE', #157 ) ;
#110 = LOCAL_TIME ( 8, 14, 27.00000000000000000, #2 ) ;
#111 = APPROVAL ( #142, 'UNSPECIFIED' ) ;
#112 = ORIENTED_EDGE ( 'NONE', *, *, #185, .F. ) ;
#113 = DIRECTION ( 'NONE',  ( 0.000000000000000000, 1.000000000000000000, -0.000000000000000000 ) ) ;
#114 = PERSON_AND_ORGANIZATION_ROLE ( 'design_owner' ) ;
#115 = CARTESIAN_POINT ( 'NONE',  ( 0.000000000000000000, 0.000000000000000000, 0.000000000000000000 ) ) ;
#116 = APPROVAL_ROLE ( '' ) ;
#117 = CC_DESIGN_APPROVAL ( #50, ( #86 ) ) ;
#118 = CARTESIAN_POINT ( 'NONE',  ( 0.000000000000000000, 0.000000000000000000, 0.000000000000000000 ) ) ;
#119 = CARTESIAN_POINT ( 'NONE',  ( 2.428612866367529932E-13, 0.000000000000000000, 12.69999999999993356 ) ) ;
#120 = ADVANCED_FACE ( 'NONE', ( #141 ), #93, .T. ) ;
#121 = APPLICATION_CONTEXT ( 'configuration controlled 3d designs of mechanical parts and assemblies' ) ;
#122 = DATE_AND_TIME ( #137, #104 ) ;
#123 = APPROVAL_PERSON_ORGANIZATION ( #187, #50, #189 ) ;
#124 = SHAPE_DEFINITION_REPRESENTATION ( #186, #11 ) ;
#125 = EDGE_LOOP ( 'NONE', ( #31, #90, #182 ) ) ;
#126 = ORIENTED_EDGE ( 'NONE', *, *, #102, .T. ) ;
#127 = CC_DESIGN_PERSON_AND_ORGANIZATION_ASSIGNMENT ( #20, #114, ( #18 ) ) ;
#128 = MANIFOLD_SOLID_BREP ( 'Cut-Revolve1', #24 ) ;
#129 = APPLICATION_PROTOCOL_DEFINITION ( 'international standard', 'config_control_design', 1994, #121 ) ;
#130 = FACE_OUTER_BOUND ( 'NONE', #125, .T. ) ;
#131 = AXIS2_PLACEMENT_3D ( 'NONE', #146, #194, #177 ) ;
#132 = CARTESIAN_POINT ( 'NONE',  ( 3.653259665514883433E-13, 0.000000000000000000, 12.33706456946848107 ) ) ;
#133 = DIRECTION ( 'NONE',  ( -0.000000000000000000, -0.000000000000000000, -1.000000000000000000 ) ) ;
#134 = SPHERICAL_SURFACE ( 'NONE', #12, 2000.000000000000000 ) ;
#135 = CARTESIAN_POINT ( 'NONE',  ( -38.09999999999018172, 0.000000000000000000, 12.69999999999993356 ) ) ;
#136 = PRODUCT_DEFINITION_FORMATION_WITH_SPECIFIED_SOURCE ( 'ANY', '', #18, .NOT_KNOWN. ) ;
#137 = CALENDAR_DATE ( 2021, 26, 2 ) ;
#138 = PERSON_AND_ORGANIZATION_ROLE ( 'classification_officer' ) ;
#139 = VERTEX_POINT ( 'NONE', #48 ) ;
#140 = DIRECTION ( 'NONE',  ( 0.000000000000000000, 0.000000000000000000, 1.000000000000000000 ) ) ;
#141 = FACE_OUTER_BOUND ( 'NONE', #153, .T. ) ;
#142 = APPROVAL_STATUS ( 'not_yet_approved' ) ;
#143 = EDGE_CURVE ( 'NONE', #70, #200, #53, .T. ) ;
#144 = APPROVAL_DATE_TIME ( #82, #111 ) ;
#145 = CC_DESIGN_APPROVAL ( #111, ( #136 ) ) ;
#146 = CARTESIAN_POINT ( 'NONE',  ( 0.000000000000000000, 0.000000000000000000, 0.000000000000000000 ) ) ;
#147 = DIRECTION ( 'NONE',  ( 0.000000000000000000, 0.000000000000000000, 1.000000000000000000 ) ) ;
#148 = DIRECTION ( 'NONE',  ( -0.000000000000000000, -0.000000000000000000, -1.000000000000000000 ) ) ;
#149 = VECTOR ( 'NONE', #133, 1000.000000000000000 ) ;
#150 = CC_DESIGN_SECURITY_CLASSIFICATION ( #169, ( #136 ) ) ;
#151 = APPROVAL_ROLE ( '' ) ;
#152 = ADVANCED_FACE ( 'NONE', ( #130 ), #36, .F. ) ;
#153 = EDGE_LOOP ( 'NONE', ( #29, #126, #38, #13 ) ) ;
#154 = VECTOR ( 'NONE', #33, 1000.000000000000000 ) ;
#155 = DIRECTION ( 'NONE',  ( 1.000000000000000000, 0.000000000000000000, 0.000000000000000000 ) ) ;
#156 = APPROVAL ( #165, 'UNSPECIFIED' ) ;
#157 = CARTESIAN_POINT ( 'NONE',  ( -38.10000000000000142, 0.000000000000000000, 0.000000000000000000 ) ) ;
#158 = DATE_TIME_ROLE ( 'creation_date' ) ;
#159 = EDGE_CURVE ( 'NONE', #70, #109, #16, .T. ) ;
#160 = DIRECTION ( 'NONE',  ( 1.000000000000000000, 0.000000000000000000, 0.000000000000000000 ) ) ;
#161 = AXIS2_PLACEMENT_3D ( 'NONE', #26, #64, #85 ) ;
#162 = DIRECTION ( 'NONE',  ( 1.000000000000000000, 0.000000000000000000, 0.000000000000000000 ) ) ;
#163 = AXIS2_PLACEMENT_3D ( 'NONE', #19, #173, #188 ) ;
#164 = ORIENTED_EDGE ( 'NONE', *, *, #30, .T. ) ;
#165 = APPROVAL_STATUS ( 'not_yet_approved' ) ;
#166 = PERSON_AND_ORGANIZATION ( #196, #81 ) ;
#167 = ORIENTED_EDGE ( 'NONE', *, *, #30, .F. ) ;
#168 = ORIENTED_EDGE ( 'NONE', *, *, #159, .F. ) ;
#169 = SECURITY_CLASSIFICATION ( '', '', #88 ) ;
#170 = DIRECTION ( 'NONE',  ( 0.000000000000000000, 0.000000000000000000, 1.000000000000000000 ) ) ;
#171 = COORDINATED_UNIVERSAL_TIME_OFFSET ( 2, 0, .AHEAD. ) ;
#172 = ADVANCED_FACE ( 'NONE', ( #184 ), #75, .F. ) ;
#173 = DIRECTION ( 'NONE',  ( -0.000000000000000000, -0.000000000000000000, -1.000000000000000000 ) ) ;
#174 = COORDINATED_UNIVERSAL_TIME_OFFSET ( 2, 0, .AHEAD. ) ;
#175 = CIRCLE ( 'NONE', #180, 2000.000000000000000 ) ;
#176 = CYLINDRICAL_SURFACE ( 'NONE', #198, 38.10000000000000142 ) ;
#177 = DIRECTION ( 'NONE',  ( 1.000000000000000000, 0.000000000000000000, 0.000000000000000000 ) ) ;
#178 = CC_DESIGN_DATE_AND_TIME_ASSIGNMENT ( #96, #158, ( #86 ) ) ;
#179 = PERSON_AND_ORGANIZATION ( #196, #81 ) ;
#180 = AXIS2_PLACEMENT_3D ( 'NONE', #46, #113, #170 ) ;
#181 = ORIENTED_EDGE ( 'NONE', *, *, #78, .F. ) ;
#182 = ORIENTED_EDGE ( 'NONE', *, *, #185, .T. ) ;
#183 = AXIS2_PLACEMENT_3D ( 'NONE', #119, #23, #6 ) ;
#184 = FACE_OUTER_BOUND ( 'NONE', #100, .T. ) ;
#185 = EDGE_CURVE ( 'NONE', #139, #200, #175, .T. ) ;
#186 = PRODUCT_DEFINITION_SHAPE ( 'NONE', 'NONE',  #86 ) ;
#187 = PERSON_AND_ORGANIZATION ( #196, #81 ) ;
#188 = DIRECTION ( 'NONE',  ( -1.000000000000000000, 0.000000000000000000, 0.000000000000000000 ) ) ;
#189 = APPROVAL_ROLE ( '' ) ;
#190 = CIRCLE ( 'NONE', #87, 38.10000000000000142 ) ;
#191 = CARTESIAN_POINT ( 'NONE',  ( 38.10000000000000142, 4.665904304751416087E-15, 0.000000000000000000 ) ) ;
#192 = FACE_OUTER_BOUND ( 'NONE', #55, .T. ) ;
#193 = CALENDAR_DATE ( 2021, 26, 2 ) ;
#194 = DIRECTION ( 'NONE',  ( 0.000000000000000000, 0.000000000000000000, 1.000000000000000000 ) ) ;
#195 = ADVANCED_FACE ( 'NONE', ( #5 ), #134, .F. ) ;
#196 = PERSON ( 'UNSPECIFIED', 'UNSPECIFIED', 'UNSPECIFIED', ('UNSPECIFIED'), ('UNSPECIFIED'), ('UNSPECIFIED') ) ;
#197 = DATE_AND_TIME ( #27, #73 ) ;
#198 = AXIS2_PLACEMENT_3D ( 'NONE', #52, #148, #51 ) ;
#199 = ORIENTED_EDGE ( 'NONE', *, *, #9, .T. ) ;
#200 = VERTEX_POINT ( 'NONE', #132 ) ;
#201 =( GEOMETRIC_REPRESENTATION_CONTEXT ( 3 ) GLOBAL_UNCERTAINTY_ASSIGNED_CONTEXT ( ( #34 ) ) GLOBAL_UNIT_ASSIGNED_CONTEXT ( ( #22, #40, #103 ) ) REPRESENTATION_CONTEXT ( 'NONE', 'WORKASPACE' ) );
ENDSEC;
END-ISO-10303-21;
