ISO-10303-21;
HEADER;
FILE_DESCRIPTION (( 'STEP AP203' ),
    '1' );
FILE_NAME ('010-0730E_N-BK7_PCV_window.STEP',
    '2021-02-26T06:14:54',
    ( '' ),
    ( '' ),
    'SwSTEP 2.0',
    'SolidWorks 2019',
    '' );
FILE_SCHEMA (( 'CONFIG_CONTROL_DESIGN' ));
ENDSEC;

DATA;
#1 = SHAPE_DEFINITION_REPRESENTATION ( #134, #57 ) ;
#2 = FACE_OUTER_BOUND ( 'NONE', #179, .T. ) ;
#3 = CIRCLE ( 'NONE', #180, 38.09999999999625686 ) ;
#4 = PERSON_AND_ORGANIZATION_ROLE ( 'classification_officer' ) ;
#5 = ORIENTED_EDGE ( 'NONE', *, *, #36, .T. ) ;
#6 = ORIENTED_EDGE ( 'NONE', *, *, #158, .T. ) ;
#7 = AXIS2_PLACEMENT_3D ( 'NONE', #187, #144, #127 ) ;
#8 = DATE_AND_TIME ( #151, #164 ) ;
#9 = DIRECTION ( 'NONE',  ( -0.000000000000000000, -0.000000000000000000, -1.000000000000000000 ) ) ;
#10 = PERSON_AND_ORGANIZATION_ROLE ( 'design_supplier' ) ;
#11 = DIRECTION ( 'NONE',  ( 0.000000000000000000, -1.000000000000000000, -0.000000000000000000 ) ) ;
#12 = DIRECTION ( 'NONE',  ( 0.000000000000000000, 0.000000000000000000, 1.000000000000000000 ) ) ;
#13 = CARTESIAN_POINT ( 'NONE',  ( 1.804112415015879378E-13, 0.000000000000000000, 1512.216051931422271 ) ) ;
#14 = CYLINDRICAL_SURFACE ( 'NONE', #160, 38.10000000000000142 ) ;
#15 = ORIENTED_EDGE ( 'NONE', *, *, #70, .T. ) ;
#16 = PERSON_AND_ORGANIZATION ( #69, #26 ) ;
#17 = PRODUCT_DEFINITION_FORMATION_WITH_SPECIFIED_SOURCE ( 'ANY', '', #171, .NOT_KNOWN. ) ;
#18 = SPHERICAL_SURFACE ( 'NONE', #7, 1500.000000000000000 ) ;
#19 = CIRCLE ( 'NONE', #118, 1500.000000000000000 ) ;
#20 = FACE_OUTER_BOUND ( 'NONE', #58, .T. ) ;
#21 = AXIS2_PLACEMENT_3D ( 'NONE', #199, #77, #65 ) ;
#22 = PERSON_AND_ORGANIZATION ( #69, #26 ) ;
#23 = ORIENTED_EDGE ( 'NONE', *, *, #165, .T. ) ;
#24 = MANIFOLD_SOLID_BREP ( 'Cut-Revolve1', #146 ) ;
#25 = EDGE_CURVE ( 'NONE', #122, #43, #45, .T. ) ;
#26 = ORGANIZATION ( 'UNSPECIFIED', 'UNSPECIFIED', '' ) ;
#27 = COORDINATED_UNIVERSAL_TIME_OFFSET ( 2, 0, .AHEAD. ) ;
#28 = FACE_OUTER_BOUND ( 'NONE', #79, .T. ) ;
#29 = APPLICATION_CONTEXT ( 'configuration controlled 3d designs of mechanical parts and assemblies' ) ;
#30 = PERSON_AND_ORGANIZATION ( #69, #26 ) ;
#31 = ORIENTED_EDGE ( 'NONE', *, *, #25, .T. ) ;
#32 = AXIS2_PLACEMENT_3D ( 'NONE', #106, #175, #174 ) ;
#33 = APPROVAL_DATE_TIME ( #59, #62 ) ;
#34 = CARTESIAN_POINT ( 'NONE',  ( 1.804112415015879378E-13, 0.000000000000000000, 12.69999999999993356 ) ) ;
#35 = PERSON_AND_ORGANIZATION_ROLE ( 'design_owner' ) ;
#36 = EDGE_CURVE ( 'NONE', #122, #74, #98, .T. ) ;
#37 =( GEOMETRIC_REPRESENTATION_CONTEXT ( 3 ) GLOBAL_UNCERTAINTY_ASSIGNED_CONTEXT ( ( #103 ) ) GLOBAL_UNIT_ASSIGNED_CONTEXT ( ( #101, #88, #137 ) ) REPRESENTATION_CONTEXT ( 'NONE', 'WORKASPACE' ) );
#38 = CC_DESIGN_PERSON_AND_ORGANIZATION_ASSIGNMENT ( #135, #4, ( #60 ) ) ;
#39 = COORDINATED_UNIVERSAL_TIME_OFFSET ( 2, 0, .AHEAD. ) ;
#40 = EDGE_LOOP ( 'NONE', ( #166, #5, #100 ) ) ;
#41 = AXIS2_PLACEMENT_3D ( 'NONE', #63, #61, #67 ) ;
#42 = PERSON_AND_ORGANIZATION_ROLE ( 'creator' ) ;
#43 = VERTEX_POINT ( 'NONE', #89 ) ;
#44 = ORIENTED_EDGE ( 'NONE', *, *, #165, .F. ) ;
#45 = LINE ( 'NONE', #133, #84 ) ;
#46 = LOCAL_TIME ( 8, 14, 54.00000000000000000, #39 ) ;
#47 = APPLICATION_PROTOCOL_DEFINITION ( 'international standard', 'config_control_design', 1994, #29 ) ;
#48 = DIRECTION ( 'NONE',  ( 1.000000000000000000, 0.000000000000000000, 0.000000000000000000 ) ) ;
#49 = CARTESIAN_POINT ( 'NONE',  ( 38.09999999999643450, 4.665904304751197572E-15, 12.69999999999993356 ) ) ;
#50 = PLANE ( 'NONE',  #86 ) ;
#51 = APPROVAL ( #125, 'UNSPECIFIED' ) ;
#52 = CALENDAR_DATE ( 2021, 26, 2 ) ;
#53 = APPROVAL_PERSON_ORGANIZATION ( #16, #62, #90 ) ;
#54 = CC_DESIGN_PERSON_AND_ORGANIZATION_ASSIGNMENT ( #132, #42, ( #17 ) ) ;
#55 = CIRCLE ( 'NONE', #41, 38.09999999999625686 ) ;
#56 = ORIENTED_EDGE ( 'NONE', *, *, #25, .F. ) ;
#57 = ADVANCED_BREP_SHAPE_REPRESENTATION ( '010-0730E_N-BK7_PCV_window', ( #24, #201 ), #37 ) ;
#58 = EDGE_LOOP ( 'NONE', ( #104, #115 ) ) ;
#59 = DATE_AND_TIME ( #197, #190 ) ;
#60 = SECURITY_CLASSIFICATION ( '', '', #75 ) ;
#61 = DIRECTION ( 'NONE',  ( -0.000000000000000000, -0.000000000000000000, -1.000000000000000000 ) ) ;
#62 = APPROVAL ( #155, 'UNSPECIFIED' ) ;
#63 = CARTESIAN_POINT ( 'NONE',  ( 1.804112415015879378E-13, 0.000000000000000000, 12.69999999999993356 ) ) ;
#64 = DIRECTION ( 'NONE',  ( -0.000000000000000000, -0.000000000000000000, -1.000000000000000000 ) ) ;
#65 = DIRECTION ( 'NONE',  ( -1.000000000000000000, 0.000000000000000000, 0.000000000000000000 ) ) ;
#66 = ORIENTED_EDGE ( 'NONE', *, *, #169, .T. ) ;
#67 = DIRECTION ( 'NONE',  ( 1.000000000000000000, 0.000000000000000000, 0.000000000000000000 ) ) ;
#68 = FACE_OUTER_BOUND ( 'NONE', #129, .T. ) ;
#69 = PERSON ( 'UNSPECIFIED', 'UNSPECIFIED', 'UNSPECIFIED', ('UNSPECIFIED'), ('UNSPECIFIED'), ('UNSPECIFIED') ) ;
#70 = EDGE_CURVE ( 'NONE', #122, #167, #3, .T. ) ;
#71 = CALENDAR_DATE ( 2021, 26, 2 ) ;
#72 = AXIS2_PLACEMENT_3D ( 'NONE', #186, #108, #48 ) ;
#73 = APPROVAL_DATE_TIME ( #8, #163 ) ;
#74 = VERTEX_POINT ( 'NONE', #93 ) ;
#75 = SECURITY_CLASSIFICATION_LEVEL ( 'unclassified' ) ;
#76 = CARTESIAN_POINT ( 'NONE',  ( -38.09999999999607212, 0.000000000000000000, 12.69999999999993356 ) ) ;
#77 = DIRECTION ( 'NONE',  ( -0.000000000000000000, -0.000000000000000000, -1.000000000000000000 ) ) ;
#78 = PERSON_AND_ORGANIZATION ( #69, #26 ) ;
#79 = EDGE_LOOP ( 'NONE', ( #15, #6, #150, #56 ) ) ;
#80 = DATE_AND_TIME ( #159, #185 ) ;
#81 = CC_DESIGN_PERSON_AND_ORGANIZATION_ASSIGNMENT ( #78, #139, ( #120 ) ) ;
#82 = DATE_TIME_ROLE ( 'classification_date' ) ;
#83 = CC_DESIGN_SECURITY_CLASSIFICATION ( #60, ( #17 ) ) ;
#84 = VECTOR ( 'NONE', #64, 1000.000000000000000 ) ;
#85 = ORIENTED_EDGE ( 'NONE', *, *, #36, .F. ) ;
#86 = AXIS2_PLACEMENT_3D ( 'NONE', #109, #142, #178 ) ;
#87 = PRODUCT_RELATED_PRODUCT_CATEGORY ( 'detail', '', ( #171 ) ) ;
#88 =( NAMED_UNIT ( * ) PLANE_ANGLE_UNIT ( ) SI_UNIT ( $, .RADIAN. ) );
#89 = CARTESIAN_POINT ( 'NONE',  ( -38.10000000000000142, 0.000000000000000000, 0.000000000000000000 ) ) ;
#90 = APPROVAL_ROLE ( '' ) ;
#91 = DIRECTION ( 'NONE',  ( 0.000000000000000000, 0.000000000000000000, 1.000000000000000000 ) ) ;
#92 = MECHANICAL_CONTEXT ( 'NONE', #29, 'mechanical' ) ;
#93 = CARTESIAN_POINT ( 'NONE',  ( 2.722597514376393999E-13, 0.000000000000000000, 12.21605193142227819 ) ) ;
#94 = DIRECTION ( 'NONE',  ( -1.000000000000000000, 0.000000000000000000, 0.000000000000000000 ) ) ;
#95 = COORDINATED_UNIVERSAL_TIME_OFFSET ( 2, 0, .AHEAD. ) ;
#96 = CARTESIAN_POINT ( 'NONE',  ( 1.804112415015879378E-13, 0.000000000000000000, 1512.216051931422271 ) ) ;
#97 = CC_DESIGN_PERSON_AND_ORGANIZATION_ASSIGNMENT ( #30, #35, ( #171 ) ) ;
#98 = CIRCLE ( 'NONE', #32, 1500.000000000000000 ) ;
#99 = APPROVAL_DATE_TIME ( #147, #51 ) ;
#100 = ORIENTED_EDGE ( 'NONE', *, *, #169, .F. ) ;
#101 =( LENGTH_UNIT ( ) NAMED_UNIT ( * ) SI_UNIT ( .MILLI., .METRE. ) );
#102 = COORDINATED_UNIVERSAL_TIME_OFFSET ( 2, 0, .AHEAD. ) ;
#103 = UNCERTAINTY_MEASURE_WITH_UNIT (LENGTH_MEASURE( 1.000000000000000082E-05 ), #101, 'distance_accuracy_value', 'NONE');
#104 = ORIENTED_EDGE ( 'NONE', *, *, #148, .F. ) ;
#105 = LOCAL_TIME ( 8, 14, 54.00000000000000000, #95 ) ;
#106 = CARTESIAN_POINT ( 'NONE',  ( 1.804112415015879378E-13, 0.000000000000000000, 1512.216051931422271 ) ) ;
#107 = AXIS2_PLACEMENT_3D ( 'NONE', #13, #11, #154 ) ;
#108 = DIRECTION ( 'NONE',  ( 0.000000000000000000, 0.000000000000000000, 1.000000000000000000 ) ) ;
#109 = CARTESIAN_POINT ( 'NONE',  ( 0.000000000000000000, 0.000000000000000000, 0.000000000000000000 ) ) ;
#110 = CC_DESIGN_PERSON_AND_ORGANIZATION_ASSIGNMENT ( #170, #10, ( #17 ) ) ;
#111 = CIRCLE ( 'NONE', #72, 38.10000000000000142 ) ;
#112 = APPROVAL_ROLE ( '' ) ;
#113 = ORIENTED_EDGE ( 'NONE', *, *, #148, .T. ) ;
#114 = CIRCLE ( 'NONE', #131, 38.10000000000000142 ) ;
#115 = ORIENTED_EDGE ( 'NONE', *, *, #128, .F. ) ;
#116 = PERSON_AND_ORGANIZATION ( #69, #26 ) ;
#117 = COORDINATED_UNIVERSAL_TIME_OFFSET ( 2, 0, .AHEAD. ) ;
#118 = AXIS2_PLACEMENT_3D ( 'NONE', #96, #143, #188 ) ;
#119 = VERTEX_POINT ( 'NONE', #157 ) ;
#120 = PRODUCT_DEFINITION ( 'UNKNOWN', '', #17, #156 ) ;
#121 = CARTESIAN_POINT ( 'NONE',  ( 0.000000000000000000, 0.000000000000000000, 12.69999999999999929 ) ) ;
#122 = VERTEX_POINT ( 'NONE', #76 ) ;
#123 = CC_DESIGN_DATE_AND_TIME_ASSIGNMENT ( #162, #82, ( #60 ) ) ;
#124 = CYLINDRICAL_SURFACE ( 'NONE', #21, 38.10000000000000142 ) ;
#125 = APPROVAL_STATUS ( 'not_yet_approved' ) ;
#126 = CC_DESIGN_DATE_AND_TIME_ASSIGNMENT ( #80, #191, ( #120 ) ) ;
#127 = DIRECTION ( 'NONE',  ( 1.000000000000000000, 0.000000000000000000, 0.000000000000000000 ) ) ;
#128 = EDGE_CURVE ( 'NONE', #119, #43, #114, .T. ) ;
#129 = EDGE_LOOP ( 'NONE', ( #140, #23, #31, #113 ) ) ;
#130 = APPROVAL_PERSON_ORGANIZATION ( #116, #163, #168 ) ;
#131 = AXIS2_PLACEMENT_3D ( 'NONE', #172, #91, #195 ) ;
#132 = PERSON_AND_ORGANIZATION ( #69, #26 ) ;
#133 = CARTESIAN_POINT ( 'NONE',  ( -38.10000000000000142, 0.000000000000000000, 12.69999999999999929 ) ) ;
#134 = PRODUCT_DEFINITION_SHAPE ( 'NONE', 'NONE',  #120 ) ;
#135 = PERSON_AND_ORGANIZATION ( #69, #26 ) ;
#136 = SPHERICAL_SURFACE ( 'NONE', #107, 1500.000000000000000 ) ;
#137 =( NAMED_UNIT ( * ) SI_UNIT ( $, .STERADIAN. ) SOLID_ANGLE_UNIT ( ) );
#138 = LINE ( 'NONE', #198, #183 ) ;
#139 = PERSON_AND_ORGANIZATION_ROLE ( 'creator' ) ;
#140 = ORIENTED_EDGE ( 'NONE', *, *, #158, .F. ) ;
#141 = ADVANCED_FACE ( 'NONE', ( #152 ), #136, .F. ) ;
#142 = DIRECTION ( 'NONE',  ( 0.000000000000000000, 0.000000000000000000, 1.000000000000000000 ) ) ;
#143 = DIRECTION ( 'NONE',  ( 0.000000000000000000, 1.000000000000000000, -0.000000000000000000 ) ) ;
#144 = DIRECTION ( 'NONE',  ( 0.000000000000000000, -1.000000000000000000, -0.000000000000000000 ) ) ;
#145 = CC_DESIGN_APPROVAL ( #62, ( #120 ) ) ;
#146 = CLOSED_SHELL ( 'NONE', ( #141, #196, #192, #189, #184 ) ) ;
#147 = DATE_AND_TIME ( #71, #46 ) ;
#148 = EDGE_CURVE ( 'NONE', #43, #119, #111, .T. ) ;
#149 = CC_DESIGN_APPROVAL ( #163, ( #17 ) ) ;
#150 = ORIENTED_EDGE ( 'NONE', *, *, #128, .T. ) ;
#151 = CALENDAR_DATE ( 2021, 26, 2 ) ;
#152 = FACE_OUTER_BOUND ( 'NONE', #40, .T. ) ;
#153 = APPLICATION_PROTOCOL_DEFINITION ( 'international standard', 'config_control_design', 1994, #176 ) ;
#154 = DIRECTION ( 'NONE',  ( 1.000000000000000000, 0.000000000000000000, 0.000000000000000000 ) ) ;
#155 = APPROVAL_STATUS ( 'not_yet_approved' ) ;
#156 = DESIGN_CONTEXT ( 'detailed design', #176, 'design' ) ;
#157 = CARTESIAN_POINT ( 'NONE',  ( 38.10000000000000142, 4.665904304751416087E-15, 0.000000000000000000 ) ) ;
#158 = EDGE_CURVE ( 'NONE', #167, #119, #138, .T. ) ;
#159 = CALENDAR_DATE ( 2021, 26, 2 ) ;
#160 = AXIS2_PLACEMENT_3D ( 'NONE', #121, #194, #94 ) ;
#161 = CC_DESIGN_APPROVAL ( #51, ( #60 ) ) ;
#162 = DATE_AND_TIME ( #52, #105 ) ;
#163 = APPROVAL ( #181, 'UNSPECIFIED' ) ;
#164 = LOCAL_TIME ( 8, 14, 54.00000000000000000, #27 ) ;
#165 = EDGE_CURVE ( 'NONE', #167, #122, #55, .T. ) ;
#166 = ORIENTED_EDGE ( 'NONE', *, *, #70, .F. ) ;
#167 = VERTEX_POINT ( 'NONE', #49 ) ;
#168 = APPROVAL_ROLE ( '' ) ;
#169 = EDGE_CURVE ( 'NONE', #167, #74, #19, .T. ) ;
#170 = PERSON_AND_ORGANIZATION ( #69, #26 ) ;
#171 = PRODUCT ( '010-0730E_N-BK7_PCV_window', '010-0730E_N-BK7_PCV_window', '', ( #92 ) ) ;
#172 = CARTESIAN_POINT ( 'NONE',  ( 0.000000000000000000, 0.000000000000000000, 0.000000000000000000 ) ) ;
#173 = DIRECTION ( 'NONE',  ( 1.000000000000000000, 0.000000000000000000, 0.000000000000000000 ) ) ;
#174 = DIRECTION ( 'NONE',  ( 1.000000000000000000, 1.224646799147353207E-16, 0.000000000000000000 ) ) ;
#175 = DIRECTION ( 'NONE',  ( 1.224646799147353207E-16, -1.000000000000000000, 0.000000000000000000 ) ) ;
#176 = APPLICATION_CONTEXT ( 'configuration controlled 3d designs of mechanical parts and assemblies' ) ;
#177 = APPROVAL_PERSON_ORGANIZATION ( #22, #51, #112 ) ;
#178 = DIRECTION ( 'NONE',  ( 1.000000000000000000, 0.000000000000000000, -0.000000000000000000 ) ) ;
#179 = EDGE_LOOP ( 'NONE', ( #85, #44, #66 ) ) ;
#180 = AXIS2_PLACEMENT_3D ( 'NONE', #34, #200, #193 ) ;
#181 = APPROVAL_STATUS ( 'not_yet_approved' ) ;
#182 = CARTESIAN_POINT ( 'NONE',  ( 0.000000000000000000, 0.000000000000000000, 0.000000000000000000 ) ) ;
#183 = VECTOR ( 'NONE', #9, 1000.000000000000000 ) ;
#184 = ADVANCED_FACE ( 'NONE', ( #2 ), #18, .F. ) ;
#185 = LOCAL_TIME ( 8, 14, 54.00000000000000000, #117 ) ;
#186 = CARTESIAN_POINT ( 'NONE',  ( 0.000000000000000000, 0.000000000000000000, 0.000000000000000000 ) ) ;
#187 = CARTESIAN_POINT ( 'NONE',  ( 1.804112415015879378E-13, 0.000000000000000000, 1512.216051931422271 ) ) ;
#188 = DIRECTION ( 'NONE',  ( 0.000000000000000000, 0.000000000000000000, 1.000000000000000000 ) ) ;
#189 = ADVANCED_FACE ( 'NONE', ( #20 ), #50, .F. ) ;
#190 = LOCAL_TIME ( 8, 14, 54.00000000000000000, #102 ) ;
#191 = DATE_TIME_ROLE ( 'creation_date' ) ;
#192 = ADVANCED_FACE ( 'NONE', ( #68 ), #124, .T. ) ;
#193 = DIRECTION ( 'NONE',  ( 1.000000000000000000, 0.000000000000000000, 0.000000000000000000 ) ) ;
#194 = DIRECTION ( 'NONE',  ( -0.000000000000000000, -0.000000000000000000, -1.000000000000000000 ) ) ;
#195 = DIRECTION ( 'NONE',  ( 1.000000000000000000, 0.000000000000000000, 0.000000000000000000 ) ) ;
#196 = ADVANCED_FACE ( 'NONE', ( #28 ), #14, .T. ) ;
#197 = CALENDAR_DATE ( 2021, 26, 2 ) ;
#198 = CARTESIAN_POINT ( 'NONE',  ( 38.10000000000000142, 4.665904304751416087E-15, 12.69999999999999929 ) ) ;
#199 = CARTESIAN_POINT ( 'NONE',  ( 0.000000000000000000, 0.000000000000000000, 12.69999999999999929 ) ) ;
#200 = DIRECTION ( 'NONE',  ( -0.000000000000000000, -0.000000000000000000, -1.000000000000000000 ) ) ;
#201 = AXIS2_PLACEMENT_3D ( 'NONE', #182, #12, #173 ) ;
ENDSEC;
END-ISO-10303-21;
