ISO-10303-21;
HEADER;
FILE_DESCRIPTION (( 'STEP AP203' ),
    '1' );
FILE_NAME ('010-0725E_N-BK7_PCV_window.STEP',
    '2021-02-26T06:13:50',
    ( '' ),
    ( '' ),
    'SwSTEP 2.0',
    'SolidWorks 2019',
    '' );
FILE_SCHEMA (( 'CONFIG_CONTROL_DESIGN' ));
ENDSEC;

DATA;
#1 = CC_DESIGN_PERSON_AND_ORGANIZATION_ASSIGNMENT ( #121, #34, ( #123 ) ) ;
#2 = DATE_AND_TIME ( #55, #77 ) ;
#3 = ORIENTED_EDGE ( 'NONE', *, *, #134, .T. ) ;
#4 = PERSON_AND_ORGANIZATION ( #90, #28 ) ;
#5 = COORDINATED_UNIVERSAL_TIME_OFFSET ( 2, 0, .AHEAD. ) ;
#6 = AXIS2_PLACEMENT_3D ( 'NONE', #8, #108, #124 ) ;
#7 = CIRCLE ( 'NONE', #187, 38.09999999999771347 ) ;
#8 = CARTESIAN_POINT ( 'NONE',  ( 1.249000902703301108E-13, 0.000000000000000000, 1011.973931412202887 ) ) ;
#9 = DIRECTION ( 'NONE',  ( 0.000000000000000000, -1.000000000000000000, -0.000000000000000000 ) ) ;
#10 = AXIS2_PLACEMENT_3D ( 'NONE', #98, #186, #50 ) ;
#11 = CC_DESIGN_SECURITY_CLASSIFICATION ( #43, ( #123 ) ) ;
#12 = SPHERICAL_SURFACE ( 'NONE', #10, 999.9999999999998863 ) ;
#13 = VECTOR ( 'NONE', #59, 1000.000000000000000 ) ;
#14 = FACE_OUTER_BOUND ( 'NONE', #16, .T. ) ;
#15 = UNCERTAINTY_MEASURE_WITH_UNIT (LENGTH_MEASURE( 1.000000000000000082E-05 ), #94, 'distance_accuracy_value', 'NONE');
#16 = EDGE_LOOP ( 'NONE', ( #41, #167, #189 ) ) ;
#17 = CARTESIAN_POINT ( 'NONE',  ( 0.000000000000000000, 0.000000000000000000, 12.69999999999999929 ) ) ;
#18 = COORDINATED_UNIVERSAL_TIME_OFFSET ( 2, 0, .AHEAD. ) ;
#19 = FACE_OUTER_BOUND ( 'NONE', #72, .T. ) ;
#20 = AXIS2_PLACEMENT_3D ( 'NONE', #92, #46, #139 ) ;
#21 = APPROVAL_STATUS ( 'not_yet_approved' ) ;
#22 = CC_DESIGN_DATE_AND_TIME_ASSIGNMENT ( #178, #71, ( #43 ) ) ;
#23 = PERSON_AND_ORGANIZATION ( #90, #28 ) ;
#24 = DIRECTION ( 'NONE',  ( 1.000000000000000000, 0.000000000000000000, 0.000000000000000000 ) ) ;
#25 = APPLICATION_PROTOCOL_DEFINITION ( 'international standard', 'config_control_design', 1994, #82 ) ;
#26 = VERTEX_POINT ( 'NONE', #81 ) ;
#27 = PRODUCT_DEFINITION ( 'UNKNOWN', '', #123, #174 ) ;
#28 = ORGANIZATION ( 'UNSPECIFIED', 'UNSPECIFIED', '' ) ;
#29 = CC_DESIGN_PERSON_AND_ORGANIZATION_ASSIGNMENT ( #190, #150, ( #27 ) ) ;
#30 = LINE ( 'NONE', #127, #106 ) ;
#31 = EDGE_CURVE ( 'NONE', #160, #144, #7, .T. ) ;
#32 = FACE_OUTER_BOUND ( 'NONE', #97, .T. ) ;
#33 = ORIENTED_EDGE ( 'NONE', *, *, #166, .F. ) ;
#34 = PERSON_AND_ORGANIZATION_ROLE ( 'design_supplier' ) ;
#35 = APPROVAL ( #181, 'UNSPECIFIED' ) ;
#36 = EDGE_LOOP ( 'NONE', ( #44, #3, #33 ) ) ;
#37 = CLOSED_SHELL ( 'NONE', ( #128, #45, #111, #87, #95 ) ) ;
#38 = DATE_AND_TIME ( #85, #47 ) ;
#39 = PERSON_AND_ORGANIZATION ( #90, #28 ) ;
#40 = DATE_AND_TIME ( #191, #141 ) ;
#41 = ORIENTED_EDGE ( 'NONE', *, *, #134, .F. ) ;
#42 = CC_DESIGN_PERSON_AND_ORGANIZATION_ASSIGNMENT ( #39, #66, ( #123 ) ) ;
#43 = SECURITY_CLASSIFICATION ( '', '', #147 ) ;
#44 = ORIENTED_EDGE ( 'NONE', *, *, #31, .F. ) ;
#45 = ADVANCED_FACE ( 'NONE', ( #19 ), #177, .T. ) ;
#46 = DIRECTION ( 'NONE',  ( 1.224646799147353207E-16, -1.000000000000000000, 0.000000000000000000 ) ) ;
#47 = LOCAL_TIME ( 8, 13, 50.00000000000000000, #149 ) ;
#48 = CIRCLE ( 'NONE', #6, 999.9999999999997726 ) ;
#49 = DIRECTION ( 'NONE',  ( -0.000000000000000000, -0.000000000000000000, -1.000000000000000000 ) ) ;
#50 = DIRECTION ( 'NONE',  ( 1.000000000000000000, 0.000000000000000000, 0.000000000000000000 ) ) ;
#51 = CARTESIAN_POINT ( 'NONE',  ( 1.249000902703301108E-13, 0.000000000000000000, 12.70000000000004547 ) ) ;
#52 = VERTEX_POINT ( 'NONE', #114 ) ;
#53 = CALENDAR_DATE ( 2021, 26, 2 ) ;
#54 = AXIS2_PLACEMENT_3D ( 'NONE', #200, #113, #175 ) ;
#55 = CALENDAR_DATE ( 2021, 26, 2 ) ;
#56 = MECHANICAL_CONTEXT ( 'NONE', #82, 'mechanical' ) ;
#57 = APPROVAL ( #117, 'UNSPECIFIED' ) ;
#58 = AXIS2_PLACEMENT_3D ( 'NONE', #17, #63, #196 ) ;
#59 = DIRECTION ( 'NONE',  ( -0.000000000000000000, -0.000000000000000000, -1.000000000000000000 ) ) ;
#60 = FACE_OUTER_BOUND ( 'NONE', #36, .T. ) ;
#61 = EDGE_CURVE ( 'NONE', #158, #52, #126, .T. ) ;
#62 = APPROVAL ( #21, 'UNSPECIFIED' ) ;
#63 = DIRECTION ( 'NONE',  ( -0.000000000000000000, -0.000000000000000000, -1.000000000000000000 ) ) ;
#64 = DIRECTION ( 'NONE',  ( -0.000000000000000000, -0.000000000000000000, -1.000000000000000000 ) ) ;
#65 = ORIENTED_EDGE ( 'NONE', *, *, #198, .T. ) ;
#66 = PERSON_AND_ORGANIZATION_ROLE ( 'creator' ) ;
#67 = EDGE_LOOP ( 'NONE', ( #131, #146 ) ) ;
#68 = PERSON_AND_ORGANIZATION ( #90, #28 ) ;
#69 =( NAMED_UNIT ( * ) SI_UNIT ( $, .STERADIAN. ) SOLID_ANGLE_UNIT ( ) );
#70 = CIRCLE ( 'NONE', #182, 38.10000000000000142 ) ;
#71 = DATE_TIME_ROLE ( 'classification_date' ) ;
#72 = EDGE_LOOP ( 'NONE', ( #176, #122, #116, #165 ) ) ;
#73 = CARTESIAN_POINT ( 'NONE',  ( 0.000000000000000000, 0.000000000000000000, 0.000000000000000000 ) ) ;
#74 = SPHERICAL_SURFACE ( 'NONE', #93, 999.9999999999998863 ) ;
#75 = EDGE_CURVE ( 'NONE', #160, #52, #30, .T. ) ;
#76 = CC_DESIGN_PERSON_AND_ORGANIZATION_ASSIGNMENT ( #68, #104, ( #43 ) ) ;
#77 = LOCAL_TIME ( 8, 13, 50.00000000000000000, #18 ) ;
#78 = DIRECTION ( 'NONE',  ( 0.000000000000000000, 0.000000000000000000, 1.000000000000000000 ) ) ;
#79 = DIRECTION ( 'NONE',  ( 1.000000000000000000, 0.000000000000000000, 0.000000000000000000 ) ) ;
#80 = MANIFOLD_SOLID_BREP ( 'Cut-Revolve1', #37 ) ;
#81 = CARTESIAN_POINT ( 'NONE',  ( 1.861324302276977606E-13, 0.000000000000000000, 11.97393141220304358 ) ) ;
#82 = APPLICATION_CONTEXT ( 'configuration controlled 3d designs of mechanical parts and assemblies' ) ;
#83 = CARTESIAN_POINT ( 'NONE',  ( 0.000000000000000000, 0.000000000000000000, 12.69999999999999929 ) ) ;
#84 = APPROVAL_PERSON_ORGANIZATION ( #148, #62, #164 ) ;
#85 = CALENDAR_DATE ( 2021, 26, 2 ) ;
#86 = DATE_TIME_ROLE ( 'creation_date' ) ;
#87 = ADVANCED_FACE ( 'NONE', ( #156 ), #143, .F. ) ;
#88 = PERSON_AND_ORGANIZATION ( #90, #28 ) ;
#89 = COORDINATED_UNIVERSAL_TIME_OFFSET ( 2, 0, .AHEAD. ) ;
#90 = PERSON ( 'UNSPECIFIED', 'UNSPECIFIED', 'UNSPECIFIED', ('UNSPECIFIED'), ('UNSPECIFIED'), ('UNSPECIFIED') ) ;
#91 = DATE_AND_TIME ( #110, #185 ) ;
#92 = CARTESIAN_POINT ( 'NONE',  ( 1.249000902703301108E-13, 0.000000000000000000, 1011.973931412202887 ) ) ;
#93 = AXIS2_PLACEMENT_3D ( 'NONE', #140, #9, #183 ) ;
#94 =( LENGTH_UNIT ( ) NAMED_UNIT ( * ) SI_UNIT ( .MILLI., .METRE. ) );
#95 = ADVANCED_FACE ( 'NONE', ( #14 ), #12, .F. ) ;
#96 = CARTESIAN_POINT ( 'NONE',  ( 0.000000000000000000, 0.000000000000000000, 0.000000000000000000 ) ) ;
#97 = EDGE_LOOP ( 'NONE', ( #115, #133, #102, #65 ) ) ;
#98 = CARTESIAN_POINT ( 'NONE',  ( 1.249000902703301108E-13, 0.000000000000000000, 1011.973931412202887 ) ) ;
#99 = ADVANCED_BREP_SHAPE_REPRESENTATION ( '010-0725E_N-BK7_PCV_window', ( #80, #119 ), #199 ) ;
#100 = DIRECTION ( 'NONE',  ( 1.000000000000000000, 0.000000000000000000, 0.000000000000000000 ) ) ;
#101 = DIRECTION ( 'NONE',  ( 0.000000000000000000, 0.000000000000000000, 1.000000000000000000 ) ) ;
#102 = ORIENTED_EDGE ( 'NONE', *, *, #75, .T. ) ;
#103 = EDGE_CURVE ( 'NONE', #144, #160, #192, .T. ) ;
#104 = PERSON_AND_ORGANIZATION_ROLE ( 'classification_officer' ) ;
#105 = APPROVAL_ROLE ( '' ) ;
#106 = VECTOR ( 'NONE', #64, 1000.000000000000000 ) ;
#107 = CC_DESIGN_APPROVAL ( #35, ( #43 ) ) ;
#108 = DIRECTION ( 'NONE',  ( 0.000000000000000000, 1.000000000000000000, -0.000000000000000000 ) ) ;
#109 = DIRECTION ( 'NONE',  ( 1.000000000000000000, 0.000000000000000000, 0.000000000000000000 ) ) ;
#110 = CALENDAR_DATE ( 2021, 26, 2 ) ;
#111 = ADVANCED_FACE ( 'NONE', ( #32 ), #159, .T. ) ;
#112 = CC_DESIGN_APPROVAL ( #57, ( #123 ) ) ;
#113 = DIRECTION ( 'NONE',  ( -0.000000000000000000, -0.000000000000000000, -1.000000000000000000 ) ) ;
#114 = CARTESIAN_POINT ( 'NONE',  ( -38.10000000000000142, 0.000000000000000000, 0.000000000000000000 ) ) ;
#115 = ORIENTED_EDGE ( 'NONE', *, *, #197, .F. ) ;
#116 = ORIENTED_EDGE ( 'NONE', *, *, #61, .T. ) ;
#117 = APPROVAL_STATUS ( 'not_yet_approved' ) ;
#118 = CC_DESIGN_DATE_AND_TIME_ASSIGNMENT ( #2, #86, ( #27 ) ) ;
#119 = AXIS2_PLACEMENT_3D ( 'NONE', #136, #101, #24 ) ;
#120 =( NAMED_UNIT ( * ) PLANE_ANGLE_UNIT ( ) SI_UNIT ( $, .RADIAN. ) );
#121 = PERSON_AND_ORGANIZATION ( #90, #28 ) ;
#122 = ORIENTED_EDGE ( 'NONE', *, *, #197, .T. ) ;
#123 = PRODUCT_DEFINITION_FORMATION_WITH_SPECIFIED_SOURCE ( 'ANY', '', #184, .NOT_KNOWN. ) ;
#124 = DIRECTION ( 'NONE',  ( 0.000000000000000000, 0.000000000000000000, 1.000000000000000000 ) ) ;
#125 = CARTESIAN_POINT ( 'NONE',  ( 38.10000000000000142, 4.665904304751416087E-15, 12.69999999999999929 ) ) ;
#126 = CIRCLE ( 'NONE', #145, 38.10000000000000142 ) ;
#127 = CARTESIAN_POINT ( 'NONE',  ( -38.10000000000000142, 0.000000000000000000, 12.69999999999999929 ) ) ;
#128 = ADVANCED_FACE ( 'NONE', ( #60 ), #74, .F. ) ;
#129 = DIRECTION ( 'NONE',  ( 1.000000000000000000, 0.000000000000000000, -0.000000000000000000 ) ) ;
#130 = CC_DESIGN_APPROVAL ( #62, ( #27 ) ) ;
#131 = ORIENTED_EDGE ( 'NONE', *, *, #198, .F. ) ;
#132 = PERSON_AND_ORGANIZATION_ROLE ( 'design_owner' ) ;
#133 = ORIENTED_EDGE ( 'NONE', *, *, #103, .T. ) ;
#134 = EDGE_CURVE ( 'NONE', #160, #26, #171, .T. ) ;
#135 = APPROVAL_PERSON_ORGANIZATION ( #4, #57, #179 ) ;
#136 = CARTESIAN_POINT ( 'NONE',  ( 0.000000000000000000, 0.000000000000000000, 0.000000000000000000 ) ) ;
#137 = CC_DESIGN_PERSON_AND_ORGANIZATION_ASSIGNMENT ( #88, #132, ( #184 ) ) ;
#138 = APPROVAL_DATE_TIME ( #91, #35 ) ;
#139 = DIRECTION ( 'NONE',  ( 1.000000000000000000, 1.224646799147353207E-16, 0.000000000000000000 ) ) ;
#140 = CARTESIAN_POINT ( 'NONE',  ( 1.249000902703301108E-13, 0.000000000000000000, 1011.973931412202887 ) ) ;
#141 = LOCAL_TIME ( 8, 13, 50.00000000000000000, #89 ) ;
#142 = CARTESIAN_POINT ( 'NONE',  ( 0.000000000000000000, 0.000000000000000000, 0.000000000000000000 ) ) ;
#143 = PLANE ( 'NONE',  #194 ) ;
#144 = VERTEX_POINT ( 'NONE', #151 ) ;
#145 = AXIS2_PLACEMENT_3D ( 'NONE', #96, #201, #79 ) ;
#146 = ORIENTED_EDGE ( 'NONE', *, *, #61, .F. ) ;
#147 = SECURITY_CLASSIFICATION_LEVEL ( 'unclassified' ) ;
#148 = PERSON_AND_ORGANIZATION ( #90, #28 ) ;
#149 = COORDINATED_UNIVERSAL_TIME_OFFSET ( 2, 0, .AHEAD. ) ;
#150 = PERSON_AND_ORGANIZATION_ROLE ( 'creator' ) ;
#151 = CARTESIAN_POINT ( 'NONE',  ( 38.09999999999783427, 4.665904304751283558E-15, 12.70000000000004547 ) ) ;
#152 = COORDINATED_UNIVERSAL_TIME_OFFSET ( 2, 0, .AHEAD. ) ;
#153 = DIRECTION ( 'NONE',  ( 0.000000000000000000, 0.000000000000000000, 1.000000000000000000 ) ) ;
#154 = PRODUCT_DEFINITION_SHAPE ( 'NONE', 'NONE',  #27 ) ;
#155 = AXIS2_PLACEMENT_3D ( 'NONE', #83, #49, #173 ) ;
#156 = FACE_OUTER_BOUND ( 'NONE', #67, .T. ) ;
#157 = APPROVAL_PERSON_ORGANIZATION ( #23, #35, #105 ) ;
#158 = VERTEX_POINT ( 'NONE', #169 ) ;
#159 = CYLINDRICAL_SURFACE ( 'NONE', #58, 38.10000000000000142 ) ;
#160 = VERTEX_POINT ( 'NONE', #195 ) ;
#161 = APPROVAL_DATE_TIME ( #38, #57 ) ;
#162 = LOCAL_TIME ( 8, 13, 50.00000000000000000, #5 ) ;
#163 = APPLICATION_PROTOCOL_DEFINITION ( 'international standard', 'config_control_design', 1994, #172 ) ;
#164 = APPROVAL_ROLE ( '' ) ;
#165 = ORIENTED_EDGE ( 'NONE', *, *, #75, .F. ) ;
#166 = EDGE_CURVE ( 'NONE', #144, #26, #48, .T. ) ;
#167 = ORIENTED_EDGE ( 'NONE', *, *, #103, .F. ) ;
#168 = SHAPE_DEFINITION_REPRESENTATION ( #154, #99 ) ;
#169 = CARTESIAN_POINT ( 'NONE',  ( 38.10000000000000142, 4.665904304751416087E-15, 0.000000000000000000 ) ) ;
#170 = LINE ( 'NONE', #125, #13 ) ;
#171 = CIRCLE ( 'NONE', #20, 999.9999999999998863 ) ;
#172 = APPLICATION_CONTEXT ( 'configuration controlled 3d designs of mechanical parts and assemblies' ) ;
#173 = DIRECTION ( 'NONE',  ( -1.000000000000000000, 0.000000000000000000, 0.000000000000000000 ) ) ;
#174 = DESIGN_CONTEXT ( 'detailed design', #172, 'design' ) ;
#175 = DIRECTION ( 'NONE',  ( 1.000000000000000000, 0.000000000000000000, 0.000000000000000000 ) ) ;
#176 = ORIENTED_EDGE ( 'NONE', *, *, #31, .T. ) ;
#177 = CYLINDRICAL_SURFACE ( 'NONE', #155, 38.10000000000000142 ) ;
#178 = DATE_AND_TIME ( #53, #162 ) ;
#179 = APPROVAL_ROLE ( '' ) ;
#180 = PRODUCT_RELATED_PRODUCT_CATEGORY ( 'detail', '', ( #184 ) ) ;
#181 = APPROVAL_STATUS ( 'not_yet_approved' ) ;
#182 = AXIS2_PLACEMENT_3D ( 'NONE', #73, #153, #109 ) ;
#183 = DIRECTION ( 'NONE',  ( 1.000000000000000000, 0.000000000000000000, 0.000000000000000000 ) ) ;
#184 = PRODUCT ( '010-0725E_N-BK7_PCV_window', '010-0725E_N-BK7_PCV_window', '', ( #56 ) ) ;
#185 = LOCAL_TIME ( 8, 13, 50.00000000000000000, #152 ) ;
#186 = DIRECTION ( 'NONE',  ( 0.000000000000000000, -1.000000000000000000, -0.000000000000000000 ) ) ;
#187 = AXIS2_PLACEMENT_3D ( 'NONE', #51, #188, #100 ) ;
#188 = DIRECTION ( 'NONE',  ( -0.000000000000000000, -0.000000000000000000, -1.000000000000000000 ) ) ;
#189 = ORIENTED_EDGE ( 'NONE', *, *, #166, .T. ) ;
#190 = PERSON_AND_ORGANIZATION ( #90, #28 ) ;
#191 = CALENDAR_DATE ( 2021, 26, 2 ) ;
#192 = CIRCLE ( 'NONE', #54, 38.09999999999771347 ) ;
#193 = APPROVAL_DATE_TIME ( #40, #62 ) ;
#194 = AXIS2_PLACEMENT_3D ( 'NONE', #142, #78, #129 ) ;
#195 = CARTESIAN_POINT ( 'NONE',  ( -38.09999999999758558, 0.000000000000000000, 12.70000000000004547 ) ) ;
#196 = DIRECTION ( 'NONE',  ( -1.000000000000000000, 0.000000000000000000, 0.000000000000000000 ) ) ;
#197 = EDGE_CURVE ( 'NONE', #144, #158, #170, .T. ) ;
#198 = EDGE_CURVE ( 'NONE', #52, #158, #70, .T. ) ;
#199 =( GEOMETRIC_REPRESENTATION_CONTEXT ( 3 ) GLOBAL_UNCERTAINTY_ASSIGNED_CONTEXT ( ( #15 ) ) GLOBAL_UNIT_ASSIGNED_CONTEXT ( ( #94, #120, #69 ) ) REPRESENTATION_CONTEXT ( 'NONE', 'WORKASPACE' ) );
#200 = CARTESIAN_POINT ( 'NONE',  ( 1.249000902703301108E-13, 0.000000000000000000, 12.70000000000004547 ) ) ;
#201 = DIRECTION ( 'NONE',  ( 0.000000000000000000, 0.000000000000000000, 1.000000000000000000 ) ) ;
ENDSEC;
END-ISO-10303-21;
