ISO-10303-21;
HEADER;
FILE_DESCRIPTION (( 'STEP AP203' ),
    '1' );
FILE_NAME ('010-0720E_N-BK7_PCV_window.STEP',
    '2021-02-26T06:12:38',
    ( '' ),
    ( '' ),
    'SwSTEP 2.0',
    'SolidWorks 2019',
    '' );
FILE_SCHEMA (( 'CONFIG_CONTROL_DESIGN' ));
ENDSEC;

DATA;
#1 = PRODUCT_DEFINITION_FORMATION_WITH_SPECIFIED_SOURCE ( 'ANY', '', #51, .NOT_KNOWN. ) ;
#2 = PRODUCT_DEFINITION ( 'UNKNOWN', '', #1, #3 ) ;
#3 = DESIGN_CONTEXT ( 'detailed design', #167, 'design' ) ;
#4 = DATE_AND_TIME ( #143, #172 ) ;
#5 = PERSON_AND_ORGANIZATION ( #92, #134 ) ;
#6 = CC_DESIGN_PERSON_AND_ORGANIZATION_ASSIGNMENT ( #91, #18, ( #1 ) ) ;
#7 = EDGE_CURVE ( 'NONE', #129, #196, #108, .T. ) ;
#8 = ORIENTED_EDGE ( 'NONE', *, *, #122, .T. ) ;
#9 = DIRECTION ( 'NONE',  ( 1.000000000000000000, 0.000000000000000000, 0.000000000000000000 ) ) ;
#10 = DIRECTION ( 'NONE',  ( -0.000000000000000000, -0.000000000000000000, -1.000000000000000000 ) ) ;
#11 = ORIENTED_EDGE ( 'NONE', *, *, #87, .T. ) ;
#12 = EDGE_LOOP ( 'NONE', ( #61, #11, #58, #120 ) ) ;
#13 = APPROVAL_PERSON_ORGANIZATION ( #96, #114, #37 ) ;
#14 = CARTESIAN_POINT ( 'NONE',  ( 9.714451465470119729E-14, 0.000000000000000000, 811.7922287195641502 ) ) ;
#15 = LOCAL_TIME ( 8, 12, 38.00000000000000000, #94 ) ;
#16 = APPROVAL_STATUS ( 'not_yet_approved' ) ;
#17 = CARTESIAN_POINT ( 'NONE',  ( 1.461303866205953070E-13, 0.000000000000000000, 11.79222871956408980 ) ) ;
#18 = PERSON_AND_ORGANIZATION_ROLE ( 'design_supplier' ) ;
#19 = DATE_AND_TIME ( #140, #15 ) ;
#20 = CC_DESIGN_DATE_AND_TIME_ASSIGNMENT ( #19, #80, ( #24 ) ) ;
#21 = CIRCLE ( 'NONE', #41, 800.0000000000000000 ) ;
#22 = ADVANCED_BREP_SHAPE_REPRESENTATION ( '010-0720E_N-BK7_PCV_window', ( #106, #40 ), #183 ) ;
#23 = CIRCLE ( 'NONE', #50, 38.10000000000062670 ) ;
#24 = SECURITY_CLASSIFICATION ( '', '', #154 ) ;
#25 = PERSON_AND_ORGANIZATION ( #92, #134 ) ;
#26 = APPROVAL ( #200, 'UNSPECIFIED' ) ;
#27 = ORIENTED_EDGE ( 'NONE', *, *, #66, .T. ) ;
#28 = DIRECTION ( 'NONE',  ( 1.000000000000000000, 0.000000000000000000, 0.000000000000000000 ) ) ;
#29 = DIRECTION ( 'NONE',  ( 1.000000000000000000, 0.000000000000000000, 0.000000000000000000 ) ) ;
#30 = DIRECTION ( 'NONE',  ( -1.000000000000000000, 0.000000000000000000, 0.000000000000000000 ) ) ;
#31 = CARTESIAN_POINT ( 'NONE',  ( 9.714451465470119729E-14, 0.000000000000000000, 12.70000000000004547 ) ) ;
#32 = APPROVAL_PERSON_ORGANIZATION ( #125, #26, #79 ) ;
#33 = DIRECTION ( 'NONE',  ( 1.000000000000000000, 1.224646799147353207E-16, 0.000000000000000000 ) ) ;
#34 = ADVANCED_FACE ( 'NONE', ( #175 ), #160, .F. ) ;
#35 = PERSON_AND_ORGANIZATION_ROLE ( 'creator' ) ;
#36 = UNCERTAINTY_MEASURE_WITH_UNIT (LENGTH_MEASURE( 1.000000000000000082E-05 ), #121, 'distance_accuracy_value', 'NONE');
#37 = APPROVAL_ROLE ( '' ) ;
#38 = ADVANCED_FACE ( 'NONE', ( #85 ), #162, .T. ) ;
#39 = APPLICATION_PROTOCOL_DEFINITION ( 'international standard', 'config_control_design', 1994, #167 ) ;
#40 = AXIS2_PLACEMENT_3D ( 'NONE', #186, #127, #67 ) ;
#41 = AXIS2_PLACEMENT_3D ( 'NONE', #47, #163, #33 ) ;
#42 = ORIENTED_EDGE ( 'NONE', *, *, #168, .T. ) ;
#43 = DIRECTION ( 'NONE',  ( -0.000000000000000000, -0.000000000000000000, -1.000000000000000000 ) ) ;
#44 = FACE_OUTER_BOUND ( 'NONE', #193, .T. ) ;
#45 = ORIENTED_EDGE ( 'NONE', *, *, #7, .T. ) ;
#46 = LINE ( 'NONE', #161, #112 ) ;
#47 = CARTESIAN_POINT ( 'NONE',  ( 9.714451465470119729E-14, 0.000000000000000000, 811.7922287195641502 ) ) ;
#48 = CC_DESIGN_PERSON_AND_ORGANIZATION_ASSIGNMENT ( #93, #35, ( #1 ) ) ;
#49 =( NAMED_UNIT ( * ) SI_UNIT ( $, .STERADIAN. ) SOLID_ANGLE_UNIT ( ) );
#50 = AXIS2_PLACEMENT_3D ( 'NONE', #101, #72, #57 ) ;
#51 = PRODUCT ( '010-0720E_N-BK7_PCV_window', '010-0720E_N-BK7_PCV_window', '', ( #110 ) ) ;
#52 = PRODUCT_DEFINITION_SHAPE ( 'NONE', 'NONE',  #2 ) ;
#53 = CC_DESIGN_PERSON_AND_ORGANIZATION_ASSIGNMENT ( #158, #83, ( #2 ) ) ;
#54 = APPROVAL_DATE_TIME ( #4, #114 ) ;
#55 = CIRCLE ( 'NONE', #81, 38.10000000000062670 ) ;
#56 = DIRECTION ( 'NONE',  ( 0.000000000000000000, 0.000000000000000000, 1.000000000000000000 ) ) ;
#57 = DIRECTION ( 'NONE',  ( 1.000000000000000000, 0.000000000000000000, 0.000000000000000000 ) ) ;
#58 = ORIENTED_EDGE ( 'NONE', *, *, #100, .T. ) ;
#59 = ORIENTED_EDGE ( 'NONE', *, *, #168, .F. ) ;
#60 = DIRECTION ( 'NONE',  ( -1.000000000000000000, 0.000000000000000000, 0.000000000000000000 ) ) ;
#61 = ORIENTED_EDGE ( 'NONE', *, *, #144, .T. ) ;
#62 = APPROVAL ( #16, 'UNSPECIFIED' ) ;
#63 = DIRECTION ( 'NONE',  ( -0.000000000000000000, -0.000000000000000000, -1.000000000000000000 ) ) ;
#64 = DATE_AND_TIME ( #199, #195 ) ;
#65 = CALENDAR_DATE ( 2021, 26, 2 ) ;
#66 = EDGE_CURVE ( 'NONE', #102, #75, #149, .T. ) ;
#67 = DIRECTION ( 'NONE',  ( 1.000000000000000000, 0.000000000000000000, 0.000000000000000000 ) ) ;
#68 = CALENDAR_DATE ( 2021, 26, 2 ) ;
#69 = DIRECTION ( 'NONE',  ( -0.000000000000000000, -0.000000000000000000, -1.000000000000000000 ) ) ;
#70 = EDGE_LOOP ( 'NONE', ( #177, #8, #130, #27 ) ) ;
#71 = CARTESIAN_POINT ( 'NONE',  ( 38.10000000000000142, 4.665904304751416087E-15, 0.000000000000000000 ) ) ;
#72 = DIRECTION ( 'NONE',  ( -0.000000000000000000, -0.000000000000000000, -1.000000000000000000 ) ) ;
#73 = ORIENTED_EDGE ( 'NONE', *, *, #144, .F. ) ;
#74 = VECTOR ( 'NONE', #63, 1000.000000000000000 ) ;
#75 = VERTEX_POINT ( 'NONE', #71 ) ;
#76 = AXIS2_PLACEMENT_3D ( 'NONE', #148, #43, #30 ) ;
#77 = DIRECTION ( 'NONE',  ( 0.000000000000000000, -1.000000000000000000, -0.000000000000000000 ) ) ;
#78 = APPROVAL_ROLE ( '' ) ;
#79 = APPROVAL_ROLE ( '' ) ;
#80 = DATE_TIME_ROLE ( 'classification_date' ) ;
#81 = AXIS2_PLACEMENT_3D ( 'NONE', #31, #10, #190 ) ;
#82 = CC_DESIGN_DATE_AND_TIME_ASSIGNMENT ( #187, #111, ( #2 ) ) ;
#83 = PERSON_AND_ORGANIZATION_ROLE ( 'creator' ) ;
#84 = ORIENTED_EDGE ( 'NONE', *, *, #66, .F. ) ;
#85 = FACE_OUTER_BOUND ( 'NONE', #12, .T. ) ;
#86 = FACE_OUTER_BOUND ( 'NONE', #70, .T. ) ;
#87 = EDGE_CURVE ( 'NONE', #129, #75, #46, .T. ) ;
#88 = DIRECTION ( 'NONE',  ( 0.000000000000000000, 0.000000000000000000, 1.000000000000000000 ) ) ;
#89 = APPROVAL_PERSON_ORGANIZATION ( #5, #62, #78 ) ;
#90 = AXIS2_PLACEMENT_3D ( 'NONE', #136, #181, #151 ) ;
#91 = PERSON_AND_ORGANIZATION ( #92, #134 ) ;
#92 = PERSON ( 'UNSPECIFIED', 'UNSPECIFIED', 'UNSPECIFIED', ('UNSPECIFIED'), ('UNSPECIFIED'), ('UNSPECIFIED') ) ;
#93 = PERSON_AND_ORGANIZATION ( #92, #134 ) ;
#94 = COORDINATED_UNIVERSAL_TIME_OFFSET ( 2, 0, .AHEAD. ) ;
#95 = COORDINATED_UNIVERSAL_TIME_OFFSET ( 2, 0, .AHEAD. ) ;
#96 = PERSON_AND_ORGANIZATION ( #92, #134 ) ;
#97 = AXIS2_PLACEMENT_3D ( 'NONE', #118, #135, #56 ) ;
#98 = CC_DESIGN_PERSON_AND_ORGANIZATION_ASSIGNMENT ( #109, #153, ( #24 ) ) ;
#99 = CARTESIAN_POINT ( 'NONE',  ( 9.714451465470119729E-14, 0.000000000000000000, 811.7922287195641502 ) ) ;
#100 = EDGE_CURVE ( 'NONE', #75, #102, #132, .T. ) ;
#101 = CARTESIAN_POINT ( 'NONE',  ( 9.714451465470119729E-14, 0.000000000000000000, 12.70000000000004547 ) ) ;
#102 = VERTEX_POINT ( 'NONE', #176 ) ;
#103 = DIRECTION ( 'NONE',  ( 0.000000000000000000, -1.000000000000000000, -0.000000000000000000 ) ) ;
#104 = SPHERICAL_SURFACE ( 'NONE', #157, 800.0000000000000000 ) ;
#105 = LINE ( 'NONE', #165, #74 ) ;
#106 = MANIFOLD_SOLID_BREP ( 'Cut-Revolve1', #126 ) ;
#107 = AXIS2_PLACEMENT_3D ( 'NONE', #99, #103, #28 ) ;
#108 = CIRCLE ( 'NONE', #97, 799.9999999999998863 ) ;
#109 = PERSON_AND_ORGANIZATION ( #92, #134 ) ;
#110 = MECHANICAL_CONTEXT ( 'NONE', #173, 'mechanical' ) ;
#111 = DATE_TIME_ROLE ( 'creation_date' ) ;
#112 = VECTOR ( 'NONE', #128, 1000.000000000000000 ) ;
#113 = CC_DESIGN_APPROVAL ( #26, ( #24 ) ) ;
#114 = APPROVAL ( #169, 'UNSPECIFIED' ) ;
#115 = EDGE_LOOP ( 'NONE', ( #73, #42, #117 ) ) ;
#116 = CARTESIAN_POINT ( 'NONE',  ( 38.10000000000072617, 4.665904304751504439E-15, 12.70000000000004547 ) ) ;
#117 = ORIENTED_EDGE ( 'NONE', *, *, #7, .F. ) ;
#118 = CARTESIAN_POINT ( 'NONE',  ( 9.714451465470119729E-14, 0.000000000000000000, 811.7922287195641502 ) ) ;
#119 = CARTESIAN_POINT ( 'NONE',  ( -38.10000000000052722, 0.000000000000000000, 12.70000000000004547 ) ) ;
#120 = ORIENTED_EDGE ( 'NONE', *, *, #192, .F. ) ;
#121 =( LENGTH_UNIT ( ) NAMED_UNIT ( * ) SI_UNIT ( .MILLI., .METRE. ) );
#122 = EDGE_CURVE ( 'NONE', #129, #133, #55, .T. ) ;
#123 = APPROVAL_DATE_TIME ( #64, #26 ) ;
#124 = AXIS2_PLACEMENT_3D ( 'NONE', #147, #88, #29 ) ;
#125 = PERSON_AND_ORGANIZATION ( #92, #134 ) ;
#126 = CLOSED_SHELL ( 'NONE', ( #34, #38, #155, #179, #138 ) ) ;
#127 = DIRECTION ( 'NONE',  ( 0.000000000000000000, 0.000000000000000000, 1.000000000000000000 ) ) ;
#128 = DIRECTION ( 'NONE',  ( -0.000000000000000000, -0.000000000000000000, -1.000000000000000000 ) ) ;
#129 = VERTEX_POINT ( 'NONE', #116 ) ;
#130 = ORIENTED_EDGE ( 'NONE', *, *, #192, .T. ) ;
#131 = CYLINDRICAL_SURFACE ( 'NONE', #142, 38.10000000000000142 ) ;
#132 = CIRCLE ( 'NONE', #124, 38.10000000000000142 ) ;
#133 = VERTEX_POINT ( 'NONE', #119 ) ;
#134 = ORGANIZATION ( 'UNSPECIFIED', 'UNSPECIFIED', '' ) ;
#135 = DIRECTION ( 'NONE',  ( 0.000000000000000000, 1.000000000000000000, -0.000000000000000000 ) ) ;
#136 = CARTESIAN_POINT ( 'NONE',  ( 0.000000000000000000, 0.000000000000000000, 0.000000000000000000 ) ) ;
#137 = PLANE ( 'NONE',  #90 ) ;
#138 = ADVANCED_FACE ( 'NONE', ( #44 ), #104, .F. ) ;
#139 = APPROVAL_DATE_TIME ( #166, #62 ) ;
#140 = CALENDAR_DATE ( 2021, 26, 2 ) ;
#141 = CC_DESIGN_SECURITY_CLASSIFICATION ( #24, ( #1 ) ) ;
#142 = AXIS2_PLACEMENT_3D ( 'NONE', #194, #69, #60 ) ;
#143 = CALENDAR_DATE ( 2021, 26, 2 ) ;
#144 = EDGE_CURVE ( 'NONE', #133, #129, #23, .T. ) ;
#145 = COORDINATED_UNIVERSAL_TIME_OFFSET ( 2, 0, .AHEAD. ) ;
#146 = CARTESIAN_POINT ( 'NONE',  ( 0.000000000000000000, 0.000000000000000000, 0.000000000000000000 ) ) ;
#147 = CARTESIAN_POINT ( 'NONE',  ( 0.000000000000000000, 0.000000000000000000, 0.000000000000000000 ) ) ;
#148 = CARTESIAN_POINT ( 'NONE',  ( 0.000000000000000000, 0.000000000000000000, 12.69999999999999929 ) ) ;
#149 = CIRCLE ( 'NONE', #164, 38.10000000000000142 ) ;
#150 = CC_DESIGN_PERSON_AND_ORGANIZATION_ASSIGNMENT ( #25, #170, ( #51 ) ) ;
#151 = DIRECTION ( 'NONE',  ( 1.000000000000000000, 0.000000000000000000, -0.000000000000000000 ) ) ;
#152 = FACE_OUTER_BOUND ( 'NONE', #191, .T. ) ;
#153 = PERSON_AND_ORGANIZATION_ROLE ( 'classification_officer' ) ;
#154 = SECURITY_CLASSIFICATION_LEVEL ( 'unclassified' ) ;
#155 = ADVANCED_FACE ( 'NONE', ( #86 ), #131, .T. ) ;
#156 = APPLICATION_PROTOCOL_DEFINITION ( 'international standard', 'config_control_design', 1994, #173 ) ;
#157 = AXIS2_PLACEMENT_3D ( 'NONE', #14, #77, #180 ) ;
#158 = PERSON_AND_ORGANIZATION ( #92, #134 ) ;
#159 = ORIENTED_EDGE ( 'NONE', *, *, #100, .F. ) ;
#160 = SPHERICAL_SURFACE ( 'NONE', #107, 800.0000000000000000 ) ;
#161 = CARTESIAN_POINT ( 'NONE',  ( 38.10000000000000142, 4.665904304751416087E-15, 12.69999999999999929 ) ) ;
#162 = CYLINDRICAL_SURFACE ( 'NONE', #76, 38.10000000000000142 ) ;
#163 = DIRECTION ( 'NONE',  ( 1.224646799147353207E-16, -1.000000000000000000, 0.000000000000000000 ) ) ;
#164 = AXIS2_PLACEMENT_3D ( 'NONE', #146, #178, #9 ) ;
#165 = CARTESIAN_POINT ( 'NONE',  ( -38.10000000000000142, 0.000000000000000000, 12.69999999999999929 ) ) ;
#166 = DATE_AND_TIME ( #65, #188 ) ;
#167 = APPLICATION_CONTEXT ( 'configuration controlled 3d designs of mechanical parts and assemblies' ) ;
#168 = EDGE_CURVE ( 'NONE', #133, #196, #21, .T. ) ;
#169 = APPROVAL_STATUS ( 'not_yet_approved' ) ;
#170 = PERSON_AND_ORGANIZATION_ROLE ( 'design_owner' ) ;
#171 = LOCAL_TIME ( 8, 12, 38.00000000000000000, #145 ) ;
#172 = LOCAL_TIME ( 8, 12, 38.00000000000000000, #95 ) ;
#173 = APPLICATION_CONTEXT ( 'configuration controlled 3d designs of mechanical parts and assemblies' ) ;
#174 = ORIENTED_EDGE ( 'NONE', *, *, #122, .F. ) ;
#175 = FACE_OUTER_BOUND ( 'NONE', #115, .T. ) ;
#176 = CARTESIAN_POINT ( 'NONE',  ( -38.10000000000000142, 0.000000000000000000, 0.000000000000000000 ) ) ;
#177 = ORIENTED_EDGE ( 'NONE', *, *, #87, .F. ) ;
#178 = DIRECTION ( 'NONE',  ( 0.000000000000000000, 0.000000000000000000, 1.000000000000000000 ) ) ;
#179 = ADVANCED_FACE ( 'NONE', ( #152 ), #137, .F. ) ;
#180 = DIRECTION ( 'NONE',  ( 1.000000000000000000, 0.000000000000000000, 0.000000000000000000 ) ) ;
#181 = DIRECTION ( 'NONE',  ( 0.000000000000000000, 0.000000000000000000, 1.000000000000000000 ) ) ;
#182 = SHAPE_DEFINITION_REPRESENTATION ( #52, #22 ) ;
#183 =( GEOMETRIC_REPRESENTATION_CONTEXT ( 3 ) GLOBAL_UNCERTAINTY_ASSIGNED_CONTEXT ( ( #36 ) ) GLOBAL_UNIT_ASSIGNED_CONTEXT ( ( #121, #198, #49 ) ) REPRESENTATION_CONTEXT ( 'NONE', 'WORKASPACE' ) );
#184 = COORDINATED_UNIVERSAL_TIME_OFFSET ( 2, 0, .AHEAD. ) ;
#185 = CC_DESIGN_APPROVAL ( #114, ( #2 ) ) ;
#186 = CARTESIAN_POINT ( 'NONE',  ( 0.000000000000000000, 0.000000000000000000, 0.000000000000000000 ) ) ;
#187 = DATE_AND_TIME ( #68, #171 ) ;
#188 = LOCAL_TIME ( 8, 12, 38.00000000000000000, #197 ) ;
#189 = PRODUCT_RELATED_PRODUCT_CATEGORY ( 'detail', '', ( #51 ) ) ;
#190 = DIRECTION ( 'NONE',  ( 1.000000000000000000, 0.000000000000000000, 0.000000000000000000 ) ) ;
#191 = EDGE_LOOP ( 'NONE', ( #84, #159 ) ) ;
#192 = EDGE_CURVE ( 'NONE', #133, #102, #105, .T. ) ;
#193 = EDGE_LOOP ( 'NONE', ( #59, #174, #45 ) ) ;
#194 = CARTESIAN_POINT ( 'NONE',  ( 0.000000000000000000, 0.000000000000000000, 12.69999999999999929 ) ) ;
#195 = LOCAL_TIME ( 8, 12, 38.00000000000000000, #184 ) ;
#196 = VERTEX_POINT ( 'NONE', #17 ) ;
#197 = COORDINATED_UNIVERSAL_TIME_OFFSET ( 2, 0, .AHEAD. ) ;
#198 =( NAMED_UNIT ( * ) PLANE_ANGLE_UNIT ( ) SI_UNIT ( $, .RADIAN. ) );
#199 = CALENDAR_DATE ( 2021, 26, 2 ) ;
#200 = APPROVAL_STATUS ( 'not_yet_approved' ) ;
#201 = CC_DESIGN_APPROVAL ( #62, ( #1 ) ) ;
ENDSEC;
END-ISO-10303-21;
