ISO-10303-21;
HEADER;
FILE_DESCRIPTION (( 'STEP AP203' ),
    '1' );
FILE_NAME ('010-0714E_N-BK7_PCV_window.STEP',
    '2021-02-26T06:12:12',
    ( '' ),
    ( '' ),
    'SwSTEP 2.0',
    'SolidWorks 2019',
    '' );
FILE_SCHEMA (( 'CONFIG_CONTROL_DESIGN' ));
ENDSEC;

DATA;
#1 = PERSON_AND_ORGANIZATION_ROLE ( 'creator' ) ;
#2 = LOCAL_TIME ( 8, 12, 12.00000000000000000, #81 ) ;
#3 = PERSON_AND_ORGANIZATION ( #157, #159 ) ;
#4 = MECHANICAL_CONTEXT ( 'NONE', #86, 'mechanical' ) ;
#5 = AXIS2_PLACEMENT_3D ( 'NONE', #73, #38, #99 ) ;
#6 = ADVANCED_FACE ( 'NONE', ( #70 ), #85, .F. ) ;
#7 = ORIENTED_EDGE ( 'NONE', *, *, #161, .F. ) ;
#8 = ORIENTED_EDGE ( 'NONE', *, *, #123, .T. ) ;
#9 = APPROVAL ( #93, 'UNSPECIFIED' ) ;
#10 = CC_DESIGN_APPROVAL ( #140, ( #173 ) ) ;
#11 = EDGE_LOOP ( 'NONE', ( #112, #126 ) ) ;
#12 = CARTESIAN_POINT ( 'NONE',  ( 38.09999999999779163, 4.665904304751280403E-15, 12.70000000000004547 ) ) ;
#13 = ADVANCED_FACE ( 'NONE', ( #193 ), #141, .T. ) ;
#14 = DIRECTION ( 'NONE',  ( 0.000000000000000000, 0.000000000000000000, 1.000000000000000000 ) ) ;
#15 = CARTESIAN_POINT ( 'NONE',  ( 7.632783294297951215E-14, 0.000000000000000000, 611.4891031072626220 ) ) ;
#16 = LINE ( 'NONE', #105, #125 ) ;
#17 = FACE_OUTER_BOUND ( 'NONE', #56, .T. ) ;
#18 = APPROVAL_DATE_TIME ( #64, #9 ) ;
#19 = CIRCLE ( 'NONE', #118, 599.9999999999998863 ) ;
#20 = CC_DESIGN_PERSON_AND_ORGANIZATION_ASSIGNMENT ( #50, #63, ( #173 ) ) ;
#21 = PERSON_AND_ORGANIZATION ( #157, #159 ) ;
#22 = COORDINATED_UNIVERSAL_TIME_OFFSET ( 2, 0, .AHEAD. ) ;
#23 = ORIENTED_EDGE ( 'NONE', *, *, #62, .T. ) ;
#24 = VERTEX_POINT ( 'NONE', #160 ) ;
#25 = ORIENTED_EDGE ( 'NONE', *, *, #42, .T. ) ;
#26 = EDGE_CURVE ( 'NONE', #24, #191, #41, .T. ) ;
#27 = EDGE_LOOP ( 'NONE', ( #194, #74, #8 ) ) ;
#28 = CARTESIAN_POINT ( 'NONE',  ( 0.000000000000000000, 0.000000000000000000, 0.000000000000000000 ) ) ;
#29 = DIRECTION ( 'NONE',  ( -1.000000000000000000, 0.000000000000000000, 0.000000000000000000 ) ) ;
#30 = DIRECTION ( 'NONE',  ( -0.000000000000000000, -0.000000000000000000, -1.000000000000000000 ) ) ;
#31 = AXIS2_PLACEMENT_3D ( 'NONE', #61, #104, #43 ) ;
#32 = CYLINDRICAL_SURFACE ( 'NONE', #114, 38.10000000000000142 ) ;
#33 = DATE_AND_TIME ( #66, #75 ) ;
#34 = CALENDAR_DATE ( 2021, 26, 2 ) ;
#35 = SECURITY_CLASSIFICATION_LEVEL ( 'unclassified' ) ;
#36 = CIRCLE ( 'NONE', #95, 38.09999999999771347 ) ;
#37 = DIRECTION ( 'NONE',  ( 1.000000000000000000, 0.000000000000000000, -0.000000000000000000 ) ) ;
#38 = DIRECTION ( 'NONE',  ( -0.000000000000000000, -0.000000000000000000, -1.000000000000000000 ) ) ;
#39 = DIRECTION ( 'NONE',  ( 0.000000000000000000, 0.000000000000000000, 1.000000000000000000 ) ) ;
#40 = DIRECTION ( 'NONE',  ( 1.000000000000000000, 0.000000000000000000, 0.000000000000000000 ) ) ;
#41 = CIRCLE ( 'NONE', #69, 38.10000000000000142 ) ;
#42 = EDGE_CURVE ( 'NONE', #52, #24, #44, .T. ) ;
#43 = DIRECTION ( 'NONE',  ( 1.000000000000000000, 1.224646799147353207E-16, 0.000000000000000000 ) ) ;
#44 = LINE ( 'NONE', #143, #172 ) ;
#45 = DIRECTION ( 'NONE',  ( 1.000000000000000000, 0.000000000000000000, 0.000000000000000000 ) ) ;
#46 = PRODUCT_DEFINITION_SHAPE ( 'NONE', 'NONE',  #176 ) ;
#47 = AXIS2_PLACEMENT_3D ( 'NONE', #196, #148, #59 ) ;
#48 = APPROVAL_ROLE ( '' ) ;
#49 = DATE_AND_TIME ( #151, #155 ) ;
#50 = PERSON_AND_ORGANIZATION ( #157, #159 ) ;
#51 = APPLICATION_CONTEXT ( 'configuration controlled 3d designs of mechanical parts and assemblies' ) ;
#52 = VERTEX_POINT ( 'NONE', #164 ) ;
#53 = CIRCLE ( 'NONE', #84, 38.10000000000000142 ) ;
#54 = ORIENTED_EDGE ( 'NONE', *, *, #26, .T. ) ;
#55 = CC_DESIGN_PERSON_AND_ORGANIZATION_ASSIGNMENT ( #3, #1, ( #184 ) ) ;
#56 = EDGE_LOOP ( 'NONE', ( #83, #101, #127, #102 ) ) ;
#57 = APPROVAL_PERSON_ORGANIZATION ( #174, #140, #48 ) ;
#58 = DIRECTION ( 'NONE',  ( 1.000000000000000000, 0.000000000000000000, 0.000000000000000000 ) ) ;
#59 = DIRECTION ( 'NONE',  ( 1.000000000000000000, 0.000000000000000000, 0.000000000000000000 ) ) ;
#60 = CARTESIAN_POINT ( 'NONE',  ( 0.000000000000000000, 0.000000000000000000, 12.69999999999999929 ) ) ;
#61 = CARTESIAN_POINT ( 'NONE',  ( 7.632783294297951215E-14, 0.000000000000000000, 611.4891031072626220 ) ) ;
#62 = EDGE_CURVE ( 'NONE', #52, #109, #152, .T. ) ;
#63 = PERSON_AND_ORGANIZATION_ROLE ( 'classification_officer' ) ;
#64 = DATE_AND_TIME ( #34, #2 ) ;
#65 = PERSON_AND_ORGANIZATION ( #157, #159 ) ;
#66 = CALENDAR_DATE ( 2021, 26, 2 ) ;
#67 = AXIS2_PLACEMENT_3D ( 'NONE', #192, #110, #37 ) ;
#68 = ADVANCED_BREP_SHAPE_REPRESENTATION ( '010-0714E_N-BK7_PCV_window', ( #181, #47 ), #175 ) ;
#69 = AXIS2_PLACEMENT_3D ( 'NONE', #178, #39, #117 ) ;
#70 = FACE_OUTER_BOUND ( 'NONE', #11, .T. ) ;
#71 = LOCAL_TIME ( 8, 12, 12.00000000000000000, #94 ) ;
#72 = CC_DESIGN_APPROVAL ( #9, ( #176 ) ) ;
#73 = CARTESIAN_POINT ( 'NONE',  ( 0.000000000000000000, 0.000000000000000000, 12.69999999999999929 ) ) ;
#74 = ORIENTED_EDGE ( 'NONE', *, *, #149, .F. ) ;
#75 = LOCAL_TIME ( 8, 12, 12.00000000000000000, #79 ) ;
#76 =( LENGTH_UNIT ( ) NAMED_UNIT ( * ) SI_UNIT ( .MILLI., .METRE. ) );
#77 =( NAMED_UNIT ( * ) SI_UNIT ( $, .STERADIAN. ) SOLID_ANGLE_UNIT ( ) );
#78 = SPHERICAL_SURFACE ( 'NONE', #185, 599.9999999999998863 ) ;
#79 = COORDINATED_UNIVERSAL_TIME_OFFSET ( 2, 0, .AHEAD. ) ;
#80 = PERSON_AND_ORGANIZATION ( #157, #159 ) ;
#81 = COORDINATED_UNIVERSAL_TIME_OFFSET ( 2, 0, .AHEAD. ) ;
#82 = DATE_TIME_ROLE ( 'creation_date' ) ;
#83 = ORIENTED_EDGE ( 'NONE', *, *, #128, .T. ) ;
#84 = AXIS2_PLACEMENT_3D ( 'NONE', #28, #14, #129 ) ;
#85 = PLANE ( 'NONE',  #67 ) ;
#86 = APPLICATION_CONTEXT ( 'configuration controlled 3d designs of mechanical parts and assemblies' ) ;
#87 = VERTEX_POINT ( 'NONE', #12 ) ;
#88 = DIRECTION ( 'NONE',  ( -0.000000000000000000, -0.000000000000000000, -1.000000000000000000 ) ) ;
#89 = DIRECTION ( 'NONE',  ( 0.000000000000000000, -1.000000000000000000, -0.000000000000000000 ) ) ;
#90 = PRODUCT ( '010-0714E_N-BK7_PCV_window', '010-0714E_N-BK7_PCV_window', '', ( #4 ) ) ;
#91 = CARTESIAN_POINT ( 'NONE',  ( 38.10000000000000142, 4.665904304751416087E-15, 0.000000000000000000 ) ) ;
#92 = CARTESIAN_POINT ( 'NONE',  ( 7.632783294297951215E-14, 0.000000000000000000, 12.70000000000004547 ) ) ;
#93 = APPROVAL_STATUS ( 'not_yet_approved' ) ;
#94 = COORDINATED_UNIVERSAL_TIME_OFFSET ( 2, 0, .AHEAD. ) ;
#95 = AXIS2_PLACEMENT_3D ( 'NONE', #92, #88, #45 ) ;
#96 = DATE_AND_TIME ( #120, #71 ) ;
#97 = EDGE_CURVE ( 'NONE', #191, #24, #53, .T. ) ;
#98 = APPROVAL ( #189, 'UNSPECIFIED' ) ;
#99 = DIRECTION ( 'NONE',  ( -1.000000000000000000, 0.000000000000000000, 0.000000000000000000 ) ) ;
#100 = CC_DESIGN_PERSON_AND_ORGANIZATION_ASSIGNMENT ( #65, #154, ( #184 ) ) ;
#101 = ORIENTED_EDGE ( 'NONE', *, *, #161, .T. ) ;
#102 = ORIENTED_EDGE ( 'NONE', *, *, #42, .F. ) ;
#103 = DIRECTION ( 'NONE',  ( 0.000000000000000000, 1.000000000000000000, -0.000000000000000000 ) ) ;
#104 = DIRECTION ( 'NONE',  ( 1.224646799147353207E-16, -1.000000000000000000, 0.000000000000000000 ) ) ;
#105 = CARTESIAN_POINT ( 'NONE',  ( 38.10000000000000142, 4.665904304751416087E-15, 12.69999999999999929 ) ) ;
#106 = PERSON_AND_ORGANIZATION ( #157, #159 ) ;
#107 = APPROVAL_DATE_TIME ( #49, #140 ) ;
#108 = CC_DESIGN_APPROVAL ( #98, ( #184 ) ) ;
#109 = VERTEX_POINT ( 'NONE', #131 ) ;
#110 = DIRECTION ( 'NONE',  ( 0.000000000000000000, 0.000000000000000000, 1.000000000000000000 ) ) ;
#111 = ORIENTED_EDGE ( 'NONE', *, *, #149, .T. ) ;
#112 = ORIENTED_EDGE ( 'NONE', *, *, #26, .F. ) ;
#113 = FACE_OUTER_BOUND ( 'NONE', #27, .T. ) ;
#114 = AXIS2_PLACEMENT_3D ( 'NONE', #60, #30, #29 ) ;
#115 = CC_DESIGN_SECURITY_CLASSIFICATION ( #173, ( #184 ) ) ;
#116 = SPHERICAL_SURFACE ( 'NONE', #182, 599.9999999999998863 ) ;
#117 = DIRECTION ( 'NONE',  ( 1.000000000000000000, 0.000000000000000000, 0.000000000000000000 ) ) ;
#118 = AXIS2_PLACEMENT_3D ( 'NONE', #198, #103, #146 ) ;
#119 = APPLICATION_PROTOCOL_DEFINITION ( 'international standard', 'config_control_design', 1994, #51 ) ;
#120 = CALENDAR_DATE ( 2021, 26, 2 ) ;
#121 = DATE_AND_TIME ( #170, #153 ) ;
#122 = APPROVAL_STATUS ( 'not_yet_approved' ) ;
#123 = EDGE_CURVE ( 'NONE', #87, #109, #19, .T. ) ;
#124 = PERSON_AND_ORGANIZATION_ROLE ( 'design_owner' ) ;
#125 = VECTOR ( 'NONE', #166, 1000.000000000000000 ) ;
#126 = ORIENTED_EDGE ( 'NONE', *, *, #97, .F. ) ;
#127 = ORIENTED_EDGE ( 'NONE', *, *, #97, .T. ) ;
#128 = EDGE_CURVE ( 'NONE', #52, #87, #36, .T. ) ;
#129 = DIRECTION ( 'NONE',  ( 1.000000000000000000, 0.000000000000000000, 0.000000000000000000 ) ) ;
#130 = CC_DESIGN_DATE_AND_TIME_ASSIGNMENT ( #96, #82, ( #176 ) ) ;
#131 = CARTESIAN_POINT ( 'NONE',  ( 1.130672369174001071E-13, 0.000000000000000000, 11.48910310726281025 ) ) ;
#132 = UNCERTAINTY_MEASURE_WITH_UNIT (LENGTH_MEASURE( 1.000000000000000082E-05 ), #76, 'distance_accuracy_value', 'NONE');
#133 = APPLICATION_PROTOCOL_DEFINITION ( 'international standard', 'config_control_design', 1994, #86 ) ;
#134 = APPROVAL_DATE_TIME ( #33, #98 ) ;
#135 = PERSON_AND_ORGANIZATION_ROLE ( 'creator' ) ;
#136 = COORDINATED_UNIVERSAL_TIME_OFFSET ( 2, 0, .AHEAD. ) ;
#137 = PRODUCT_RELATED_PRODUCT_CATEGORY ( 'detail', '', ( #90 ) ) ;
#138 = ORIENTED_EDGE ( 'NONE', *, *, #123, .F. ) ;
#139 = CLOSED_SHELL ( 'NONE', ( #199, #167, #13, #6, #142 ) ) ;
#140 = APPROVAL ( #122, 'UNSPECIFIED' ) ;
#141 = CYLINDRICAL_SURFACE ( 'NONE', #5, 38.10000000000000142 ) ;
#142 = ADVANCED_FACE ( 'NONE', ( #113 ), #78, .F. ) ;
#143 = CARTESIAN_POINT ( 'NONE',  ( -38.10000000000000142, 0.000000000000000000, 12.69999999999999929 ) ) ;
#144 = APPROVAL_PERSON_ORGANIZATION ( #187, #98, #150 ) ;
#145 = DESIGN_CONTEXT ( 'detailed design', #51, 'design' ) ;
#146 = DIRECTION ( 'NONE',  ( 0.000000000000000000, 0.000000000000000000, 1.000000000000000000 ) ) ;
#147 = DIRECTION ( 'NONE',  ( 0.000000000000000000, -1.000000000000000000, -0.000000000000000000 ) ) ;
#148 = DIRECTION ( 'NONE',  ( 0.000000000000000000, 0.000000000000000000, 1.000000000000000000 ) ) ;
#149 = EDGE_CURVE ( 'NONE', #87, #52, #197, .T. ) ;
#150 = APPROVAL_ROLE ( '' ) ;
#151 = CALENDAR_DATE ( 2021, 26, 2 ) ;
#152 = CIRCLE ( 'NONE', #31, 599.9999999999998863 ) ;
#153 = LOCAL_TIME ( 8, 12, 12.00000000000000000, #22 ) ;
#154 = PERSON_AND_ORGANIZATION_ROLE ( 'design_supplier' ) ;
#155 = LOCAL_TIME ( 8, 12, 12.00000000000000000, #136 ) ;
#156 = ORIENTED_EDGE ( 'NONE', *, *, #128, .F. ) ;
#157 = PERSON ( 'UNSPECIFIED', 'UNSPECIFIED', 'UNSPECIFIED', ('UNSPECIFIED'), ('UNSPECIFIED'), ('UNSPECIFIED') ) ;
#158 = AXIS2_PLACEMENT_3D ( 'NONE', #165, #183, #40 ) ;
#159 = ORGANIZATION ( 'UNSPECIFIED', 'UNSPECIFIED', '' ) ;
#160 = CARTESIAN_POINT ( 'NONE',  ( -38.10000000000000142, 0.000000000000000000, 0.000000000000000000 ) ) ;
#161 = EDGE_CURVE ( 'NONE', #87, #191, #16, .T. ) ;
#162 = DIRECTION ( 'NONE',  ( 1.000000000000000000, 0.000000000000000000, 0.000000000000000000 ) ) ;
#163 = APPROVAL_PERSON_ORGANIZATION ( #106, #9, #169 ) ;
#164 = CARTESIAN_POINT ( 'NONE',  ( -38.09999999999763531, 0.000000000000000000, 12.70000000000004547 ) ) ;
#165 = CARTESIAN_POINT ( 'NONE',  ( 7.632783294297951215E-14, 0.000000000000000000, 12.70000000000004547 ) ) ;
#166 = DIRECTION ( 'NONE',  ( -0.000000000000000000, -0.000000000000000000, -1.000000000000000000 ) ) ;
#167 = ADVANCED_FACE ( 'NONE', ( #17 ), #32, .T. ) ;
#168 = CARTESIAN_POINT ( 'NONE',  ( 7.632783294297951215E-14, 0.000000000000000000, 611.4891031072626220 ) ) ;
#169 = APPROVAL_ROLE ( '' ) ;
#170 = CALENDAR_DATE ( 2021, 26, 2 ) ;
#171 = CC_DESIGN_PERSON_AND_ORGANIZATION_ASSIGNMENT ( #21, #135, ( #176 ) ) ;
#172 = VECTOR ( 'NONE', #200, 1000.000000000000000 ) ;
#173 = SECURITY_CLASSIFICATION ( '', '', #35 ) ;
#174 = PERSON_AND_ORGANIZATION ( #157, #159 ) ;
#175 =( GEOMETRIC_REPRESENTATION_CONTEXT ( 3 ) GLOBAL_UNCERTAINTY_ASSIGNED_CONTEXT ( ( #132 ) ) GLOBAL_UNIT_ASSIGNED_CONTEXT ( ( #76, #201, #77 ) ) REPRESENTATION_CONTEXT ( 'NONE', 'WORKASPACE' ) );
#176 = PRODUCT_DEFINITION ( 'UNKNOWN', '', #184, #145 ) ;
#177 = EDGE_LOOP ( 'NONE', ( #7, #111, #25, #54 ) ) ;
#178 = CARTESIAN_POINT ( 'NONE',  ( 0.000000000000000000, 0.000000000000000000, 0.000000000000000000 ) ) ;
#179 = CC_DESIGN_DATE_AND_TIME_ASSIGNMENT ( #121, #186, ( #173 ) ) ;
#180 = EDGE_LOOP ( 'NONE', ( #156, #23, #138 ) ) ;
#181 = MANIFOLD_SOLID_BREP ( 'Cut-Revolve1', #139 ) ;
#182 = AXIS2_PLACEMENT_3D ( 'NONE', #15, #89, #58 ) ;
#183 = DIRECTION ( 'NONE',  ( -0.000000000000000000, -0.000000000000000000, -1.000000000000000000 ) ) ;
#184 = PRODUCT_DEFINITION_FORMATION_WITH_SPECIFIED_SOURCE ( 'ANY', '', #90, .NOT_KNOWN. ) ;
#185 = AXIS2_PLACEMENT_3D ( 'NONE', #168, #147, #162 ) ;
#186 = DATE_TIME_ROLE ( 'classification_date' ) ;
#187 = PERSON_AND_ORGANIZATION ( #157, #159 ) ;
#188 = SHAPE_DEFINITION_REPRESENTATION ( #46, #68 ) ;
#189 = APPROVAL_STATUS ( 'not_yet_approved' ) ;
#190 = CC_DESIGN_PERSON_AND_ORGANIZATION_ASSIGNMENT ( #80, #124, ( #90 ) ) ;
#191 = VERTEX_POINT ( 'NONE', #91 ) ;
#192 = CARTESIAN_POINT ( 'NONE',  ( 0.000000000000000000, 0.000000000000000000, 0.000000000000000000 ) ) ;
#193 = FACE_OUTER_BOUND ( 'NONE', #177, .T. ) ;
#194 = ORIENTED_EDGE ( 'NONE', *, *, #62, .F. ) ;
#195 = FACE_OUTER_BOUND ( 'NONE', #180, .T. ) ;
#196 = CARTESIAN_POINT ( 'NONE',  ( 0.000000000000000000, 0.000000000000000000, 0.000000000000000000 ) ) ;
#197 = CIRCLE ( 'NONE', #158, 38.09999999999771347 ) ;
#198 = CARTESIAN_POINT ( 'NONE',  ( 7.632783294297951215E-14, 0.000000000000000000, 611.4891031072626220 ) ) ;
#199 = ADVANCED_FACE ( 'NONE', ( #195 ), #116, .F. ) ;
#200 = DIRECTION ( 'NONE',  ( -0.000000000000000000, -0.000000000000000000, -1.000000000000000000 ) ) ;
#201 =( NAMED_UNIT ( * ) PLANE_ANGLE_UNIT ( ) SI_UNIT ( $, .RADIAN. ) );
ENDSEC;
END-ISO-10303-21;
