ISO-10303-21;
HEADER;
FILE_DESCRIPTION (( 'STEP AP203' ),
    '1' );
FILE_NAME ('010-0712E_N-BK7_PCV_window.STEP',
    '2021-02-26T06:11:43',
    ( '' ),
    ( '' ),
    'SwSTEP 2.0',
    'SolidWorks 2019',
    '' );
FILE_SCHEMA (( 'CONFIG_CONTROL_DESIGN' ));
ENDSEC;

DATA;
#1 = APPLICATION_PROTOCOL_DEFINITION ( 'international standard', 'config_control_design', 1994, #185 ) ;
#2 = APPROVAL_ROLE ( '' ) ;
#3 = MECHANICAL_CONTEXT ( 'NONE', #185, 'mechanical' ) ;
#4 = ORIENTED_EDGE ( 'NONE', *, *, #38, .T. ) ;
#5 = CC_DESIGN_PERSON_AND_ORGANIZATION_ASSIGNMENT ( #66, #136, ( #169 ) ) ;
#6 = COORDINATED_UNIVERSAL_TIME_OFFSET ( 2, 0, .AHEAD. ) ;
#7 = ORIENTED_EDGE ( 'NONE', *, *, #55, .F. ) ;
#8 = CIRCLE ( 'NONE', #193, 38.09999999999953246 ) ;
#9 = APPROVAL ( #107, 'UNSPECIFIED' ) ;
#10 = MANIFOLD_SOLID_BREP ( 'Cut-Revolve1', #102 ) ;
#11 = ORIENTED_EDGE ( 'NONE', *, *, #76, .F. ) ;
#12 = CC_DESIGN_APPROVAL ( #9, ( #175 ) ) ;
#13 = DIRECTION ( 'NONE',  ( -0.000000000000000000, -0.000000000000000000, -1.000000000000000000 ) ) ;
#14 = DIRECTION ( 'NONE',  ( 1.224646799147353207E-16, -1.000000000000000000, 0.000000000000000000 ) ) ;
#15 = DIRECTION ( 'NONE',  ( -0.000000000000000000, -0.000000000000000000, -1.000000000000000000 ) ) ;
#16 = APPROVAL_DATE_TIME ( #32, #144 ) ;
#17 = APPROVAL_STATUS ( 'not_yet_approved' ) ;
#18 = CIRCLE ( 'NONE', #165, 38.10000000000000142 ) ;
#19 = ORIENTED_EDGE ( 'NONE', *, *, #110, .F. ) ;
#20 =( NAMED_UNIT ( * ) SI_UNIT ( $, .STERADIAN. ) SOLID_ANGLE_UNIT ( ) );
#21 = ORIENTED_EDGE ( 'NONE', *, *, #152, .F. ) ;
#22 = ADVANCED_BREP_SHAPE_REPRESENTATION ( '010-0712E_N-BK7_PCV_window', ( #10, #154 ), #39 ) ;
#23 = ADVANCED_FACE ( 'NONE', ( #148 ), #132, .F. ) ;
#24 = CC_DESIGN_SECURITY_CLASSIFICATION ( #175, ( #177 ) ) ;
#25 = CARTESIAN_POINT ( 'NONE',  ( 0.000000000000000000, 0.000000000000000000, 12.69999999999999929 ) ) ;
#26 = DIRECTION ( 'NONE',  ( 0.000000000000000000, 1.000000000000000000, -0.000000000000000000 ) ) ;
#27 = DIRECTION ( 'NONE',  ( 0.000000000000000000, -1.000000000000000000, -0.000000000000000000 ) ) ;
#28 = PRODUCT_DEFINITION_SHAPE ( 'NONE', 'NONE',  #72 ) ;
#29 = CARTESIAN_POINT ( 'NONE',  ( 0.000000000000000000, 0.000000000000000000, 0.000000000000000000 ) ) ;
#30 = CARTESIAN_POINT ( 'NONE',  ( 6.245004513516505540E-14, 0.000000000000000000, 12.69999999999998863 ) ) ;
#31 = PERSON_AND_ORGANIZATION ( #126, #49 ) ;
#32 = DATE_AND_TIME ( #63, #79 ) ;
#33 = ORIENTED_EDGE ( 'NONE', *, *, #110, .T. ) ;
#34 = CARTESIAN_POINT ( 'NONE',  ( 0.000000000000000000, 0.000000000000000000, 0.000000000000000000 ) ) ;
#35 = CIRCLE ( 'NONE', #77, 500.0000000000000000 ) ;
#36 = COORDINATED_UNIVERSAL_TIME_OFFSET ( 2, 0, .AHEAD. ) ;
#37 = EDGE_LOOP ( 'NONE', ( #140, #127, #90, #7 ) ) ;
#38 = EDGE_CURVE ( 'NONE', #68, #143, #8, .T. ) ;
#39 =( GEOMETRIC_REPRESENTATION_CONTEXT ( 3 ) GLOBAL_UNCERTAINTY_ASSIGNED_CONTEXT ( ( #146 ) ) GLOBAL_UNIT_ASSIGNED_CONTEXT ( ( #86, #155, #20 ) ) REPRESENTATION_CONTEXT ( 'NONE', 'WORKASPACE' ) );
#40 = DIRECTION ( 'NONE',  ( 0.000000000000000000, 0.000000000000000000, 1.000000000000000000 ) ) ;
#41 = DIRECTION ( 'NONE',  ( 0.000000000000000000, 0.000000000000000000, 1.000000000000000000 ) ) ;
#42 = CARTESIAN_POINT ( 'NONE',  ( 6.245004513516505540E-14, 0.000000000000000000, 511.2462766885337260 ) ) ;
#43 = CARTESIAN_POINT ( 'NONE',  ( -38.09999999999946851, 0.000000000000000000, 12.69999999999998863 ) ) ;
#44 = AXIS2_PLACEMENT_3D ( 'NONE', #29, #41, #104 ) ;
#45 = DIRECTION ( 'NONE',  ( 0.000000000000000000, -1.000000000000000000, -0.000000000000000000 ) ) ;
#46 = ADVANCED_FACE ( 'NONE', ( #198 ), #99, .T. ) ;
#47 = CALENDAR_DATE ( 2021, 26, 2 ) ;
#48 = PERSON_AND_ORGANIZATION ( #126, #49 ) ;
#49 = ORGANIZATION ( 'UNSPECIFIED', 'UNSPECIFIED', '' ) ;
#50 = PERSON_AND_ORGANIZATION_ROLE ( 'classification_officer' ) ;
#51 = APPROVAL_STATUS ( 'not_yet_approved' ) ;
#52 = VERTEX_POINT ( 'NONE', #71 ) ;
#53 = AXIS2_PLACEMENT_3D ( 'NONE', #59, #14, #98 ) ;
#54 = AXIS2_PLACEMENT_3D ( 'NONE', #181, #45, #58 ) ;
#55 = EDGE_CURVE ( 'NONE', #143, #52, #164, .T. ) ;
#56 = DESIGN_CONTEXT ( 'detailed design', #195, 'design' ) ;
#57 = FACE_OUTER_BOUND ( 'NONE', #108, .T. ) ;
#58 = DIRECTION ( 'NONE',  ( 1.000000000000000000, 0.000000000000000000, 0.000000000000000000 ) ) ;
#59 = CARTESIAN_POINT ( 'NONE',  ( 6.245004513516505540E-14, 0.000000000000000000, 511.2462766885337260 ) ) ;
#60 = CARTESIAN_POINT ( 'NONE',  ( 38.10000000000000142, 4.665904304751416087E-15, 12.69999999999999929 ) ) ;
#61 = PRODUCT_RELATED_PRODUCT_CATEGORY ( 'detail', '', ( #169 ) ) ;
#62 = DIRECTION ( 'NONE',  ( -0.000000000000000000, -0.000000000000000000, -1.000000000000000000 ) ) ;
#63 = CALENDAR_DATE ( 2021, 26, 2 ) ;
#64 = SHAPE_DEFINITION_REPRESENTATION ( #28, #22 ) ;
#65 = APPLICATION_PROTOCOL_DEFINITION ( 'international standard', 'config_control_design', 1994, #195 ) ;
#66 = PERSON_AND_ORGANIZATION ( #126, #49 ) ;
#67 = CC_DESIGN_PERSON_AND_ORGANIZATION_ASSIGNMENT ( #75, #50, ( #175 ) ) ;
#68 = VERTEX_POINT ( 'NONE', #85 ) ;
#69 = AXIS2_PLACEMENT_3D ( 'NONE', #25, #15, #80 ) ;
#70 = AXIS2_PLACEMENT_3D ( 'NONE', #166, #153, #73 ) ;
#71 = CARTESIAN_POINT ( 'NONE',  ( -38.10000000000000142, 0.000000000000000000, 0.000000000000000000 ) ) ;
#72 = PRODUCT_DEFINITION ( 'UNKNOWN', '', #177, #56 ) ;
#73 = DIRECTION ( 'NONE',  ( -1.000000000000000000, 0.000000000000000000, 0.000000000000000000 ) ) ;
#74 = PERSON_AND_ORGANIZATION_ROLE ( 'creator' ) ;
#75 = PERSON_AND_ORGANIZATION ( #126, #49 ) ;
#76 = EDGE_CURVE ( 'NONE', #111, #52, #194, .T. ) ;
#77 = AXIS2_PLACEMENT_3D ( 'NONE', #81, #26, #163 ) ;
#78 = EDGE_CURVE ( 'NONE', #68, #151, #35, .T. ) ;
#79 = LOCAL_TIME ( 8, 11, 43.00000000000000000, #36 ) ;
#80 = DIRECTION ( 'NONE',  ( -1.000000000000000000, 0.000000000000000000, 0.000000000000000000 ) ) ;
#81 = CARTESIAN_POINT ( 'NONE',  ( 6.245004513516505540E-14, 0.000000000000000000, 511.2462766885337260 ) ) ;
#82 = AXIS2_PLACEMENT_3D ( 'NONE', #178, #40, #162 ) ;
#83 = CARTESIAN_POINT ( 'NONE',  ( -38.10000000000000142, 0.000000000000000000, 12.69999999999999929 ) ) ;
#84 = FACE_OUTER_BOUND ( 'NONE', #94, .T. ) ;
#85 = CARTESIAN_POINT ( 'NONE',  ( 38.09999999999958931, 4.665904304751390843E-15, 12.69999999999998863 ) ) ;
#86 =( LENGTH_UNIT ( ) NAMED_UNIT ( * ) SI_UNIT ( .MILLI., .METRE. ) );
#87 = APPROVAL_DATE_TIME ( #171, #9 ) ;
#88 = CALENDAR_DATE ( 2021, 26, 2 ) ;
#89 = PERSON_AND_ORGANIZATION ( #126, #49 ) ;
#90 = ORIENTED_EDGE ( 'NONE', *, *, #76, .T. ) ;
#91 = VECTOR ( 'NONE', #135, 1000.000000000000000 ) ;
#92 = CC_DESIGN_PERSON_AND_ORGANIZATION_ASSIGNMENT ( #105, #109, ( #177 ) ) ;
#93 = APPROVAL_DATE_TIME ( #139, #131 ) ;
#94 = EDGE_LOOP ( 'NONE', ( #196, #4, #192, #103 ) ) ;
#95 = CC_DESIGN_DATE_AND_TIME_ASSIGNMENT ( #190, #106, ( #175 ) ) ;
#96 = CIRCLE ( 'NONE', #128, 38.09999999999953246 ) ;
#97 = APPROVAL_PERSON_ORGANIZATION ( #125, #144, #186 ) ;
#98 = DIRECTION ( 'NONE',  ( 1.000000000000000000, 1.224646799147353207E-16, 0.000000000000000000 ) ) ;
#99 = CYLINDRICAL_SURFACE ( 'NONE', #69, 38.10000000000000142 ) ;
#100 = CC_DESIGN_PERSON_AND_ORGANIZATION_ASSIGNMENT ( #121, #141, ( #72 ) ) ;
#101 = DIRECTION ( 'NONE',  ( 0.000000000000000000, 0.000000000000000000, 1.000000000000000000 ) ) ;
#102 = CLOSED_SHELL ( 'NONE', ( #23, #46, #180, #191, #138 ) ) ;
#103 = ORIENTED_EDGE ( 'NONE', *, *, #152, .T. ) ;
#104 = DIRECTION ( 'NONE',  ( 1.000000000000000000, 0.000000000000000000, 0.000000000000000000 ) ) ;
#105 = PERSON_AND_ORGANIZATION ( #126, #49 ) ;
#106 = DATE_TIME_ROLE ( 'classification_date' ) ;
#107 = APPROVAL_STATUS ( 'not_yet_approved' ) ;
#108 = EDGE_LOOP ( 'NONE', ( #21, #11 ) ) ;
#109 = PERSON_AND_ORGANIZATION_ROLE ( 'design_supplier' ) ;
#110 = EDGE_CURVE ( 'NONE', #143, #151, #113, .T. ) ;
#111 = VERTEX_POINT ( 'NONE', #118 ) ;
#112 = EDGE_LOOP ( 'NONE', ( #19, #142, #159 ) ) ;
#113 = CIRCLE ( 'NONE', #53, 500.0000000000000000 ) ;
#114 = CC_DESIGN_APPROVAL ( #131, ( #177 ) ) ;
#115 = CC_DESIGN_DATE_AND_TIME_ASSIGNMENT ( #137, #172, ( #72 ) ) ;
#116 = PLANE ( 'NONE',  #82 ) ;
#117 = DIRECTION ( 'NONE',  ( 1.000000000000000000, 0.000000000000000000, 0.000000000000000000 ) ) ;
#118 = CARTESIAN_POINT ( 'NONE',  ( 38.10000000000000142, 4.665904304751416087E-15, 0.000000000000000000 ) ) ;
#119 = CYLINDRICAL_SURFACE ( 'NONE', #70, 38.10000000000000142 ) ;
#120 = APPROVAL_PERSON_ORGANIZATION ( #31, #9, #2 ) ;
#121 = PERSON_AND_ORGANIZATION ( #126, #49 ) ;
#122 = DIRECTION ( 'NONE',  ( 1.000000000000000000, 0.000000000000000000, 0.000000000000000000 ) ) ;
#123 = COORDINATED_UNIVERSAL_TIME_OFFSET ( 2, 0, .AHEAD. ) ;
#124 = SECURITY_CLASSIFICATION_LEVEL ( 'unclassified' ) ;
#125 = PERSON_AND_ORGANIZATION ( #126, #49 ) ;
#126 = PERSON ( 'UNSPECIFIED', 'UNSPECIFIED', 'UNSPECIFIED', ('UNSPECIFIED'), ('UNSPECIFIED'), ('UNSPECIFIED') ) ;
#127 = ORIENTED_EDGE ( 'NONE', *, *, #170, .T. ) ;
#128 = AXIS2_PLACEMENT_3D ( 'NONE', #147, #13, #133 ) ;
#129 = CC_DESIGN_PERSON_AND_ORGANIZATION_ASSIGNMENT ( #48, #74, ( #177 ) ) ;
#130 = ORIENTED_EDGE ( 'NONE', *, *, #78, .F. ) ;
#131 = APPROVAL ( #51, 'UNSPECIFIED' ) ;
#132 = SPHERICAL_SURFACE ( 'NONE', #54, 500.0000000000000000 ) ;
#133 = DIRECTION ( 'NONE',  ( 1.000000000000000000, 0.000000000000000000, 0.000000000000000000 ) ) ;
#134 = SPHERICAL_SURFACE ( 'NONE', #158, 500.0000000000000000 ) ;
#135 = DIRECTION ( 'NONE',  ( -0.000000000000000000, -0.000000000000000000, -1.000000000000000000 ) ) ;
#136 = PERSON_AND_ORGANIZATION_ROLE ( 'design_owner' ) ;
#137 = DATE_AND_TIME ( #189, #201 ) ;
#138 = ADVANCED_FACE ( 'NONE', ( #183 ), #134, .F. ) ;
#139 = DATE_AND_TIME ( #47, #187 ) ;
#140 = ORIENTED_EDGE ( 'NONE', *, *, #167, .T. ) ;
#141 = PERSON_AND_ORGANIZATION_ROLE ( 'creator' ) ;
#142 = ORIENTED_EDGE ( 'NONE', *, *, #38, .F. ) ;
#143 = VERTEX_POINT ( 'NONE', #43 ) ;
#144 = APPROVAL ( #17, 'UNSPECIFIED' ) ;
#145 = LOCAL_TIME ( 8, 11, 43.00000000000000000, #123 ) ;
#146 = UNCERTAINTY_MEASURE_WITH_UNIT (LENGTH_MEASURE( 1.000000000000000082E-05 ), #86, 'distance_accuracy_value', 'NONE');
#147 = CARTESIAN_POINT ( 'NONE',  ( 6.245004513516505540E-14, 0.000000000000000000, 12.69999999999998863 ) ) ;
#148 = FACE_OUTER_BOUND ( 'NONE', #174, .T. ) ;
#149 = APPROVAL_PERSON_ORGANIZATION ( #89, #131, #188 ) ;
#150 = DIRECTION ( 'NONE',  ( 1.000000000000000000, 0.000000000000000000, 0.000000000000000000 ) ) ;
#151 = VERTEX_POINT ( 'NONE', #179 ) ;
#152 = EDGE_CURVE ( 'NONE', #52, #111, #18, .T. ) ;
#153 = DIRECTION ( 'NONE',  ( -0.000000000000000000, -0.000000000000000000, -1.000000000000000000 ) ) ;
#154 = AXIS2_PLACEMENT_3D ( 'NONE', #34, #157, #122 ) ;
#155 =( NAMED_UNIT ( * ) PLANE_ANGLE_UNIT ( ) SI_UNIT ( $, .RADIAN. ) );
#156 = COORDINATED_UNIVERSAL_TIME_OFFSET ( 2, 0, .AHEAD. ) ;
#157 = DIRECTION ( 'NONE',  ( 0.000000000000000000, 0.000000000000000000, 1.000000000000000000 ) ) ;
#158 = AXIS2_PLACEMENT_3D ( 'NONE', #42, #27, #199 ) ;
#159 = ORIENTED_EDGE ( 'NONE', *, *, #78, .T. ) ;
#160 = VECTOR ( 'NONE', #197, 1000.000000000000000 ) ;
#161 = LOCAL_TIME ( 8, 11, 43.00000000000000000, #6 ) ;
#162 = DIRECTION ( 'NONE',  ( 1.000000000000000000, 0.000000000000000000, -0.000000000000000000 ) ) ;
#163 = DIRECTION ( 'NONE',  ( 0.000000000000000000, 0.000000000000000000, 1.000000000000000000 ) ) ;
#164 = LINE ( 'NONE', #83, #160 ) ;
#165 = AXIS2_PLACEMENT_3D ( 'NONE', #200, #101, #150 ) ;
#166 = CARTESIAN_POINT ( 'NONE',  ( 0.000000000000000000, 0.000000000000000000, 12.69999999999999929 ) ) ;
#167 = EDGE_CURVE ( 'NONE', #143, #68, #96, .T. ) ;
#168 = LINE ( 'NONE', #60, #91 ) ;
#169 = PRODUCT ( '010-0712E_N-BK7_PCV_window', '010-0712E_N-BK7_PCV_window', '', ( #3 ) ) ;
#170 = EDGE_CURVE ( 'NONE', #68, #111, #168, .T. ) ;
#171 = DATE_AND_TIME ( #173, #145 ) ;
#172 = DATE_TIME_ROLE ( 'creation_date' ) ;
#173 = CALENDAR_DATE ( 2021, 26, 2 ) ;
#174 = EDGE_LOOP ( 'NONE', ( #176, #33, #130 ) ) ;
#175 = SECURITY_CLASSIFICATION ( '', '', #124 ) ;
#176 = ORIENTED_EDGE ( 'NONE', *, *, #167, .F. ) ;
#177 = PRODUCT_DEFINITION_FORMATION_WITH_SPECIFIED_SOURCE ( 'ANY', '', #169, .NOT_KNOWN. ) ;
#178 = CARTESIAN_POINT ( 'NONE',  ( 0.000000000000000000, 0.000000000000000000, 0.000000000000000000 ) ) ;
#179 = CARTESIAN_POINT ( 'NONE',  ( 9.306621511384889292E-14, 0.000000000000000000, 11.24627668853372953 ) ) ;
#180 = ADVANCED_FACE ( 'NONE', ( #84 ), #119, .T. ) ;
#181 = CARTESIAN_POINT ( 'NONE',  ( 6.245004513516505540E-14, 0.000000000000000000, 511.2462766885337260 ) ) ;
#182 = CC_DESIGN_APPROVAL ( #144, ( #72 ) ) ;
#183 = FACE_OUTER_BOUND ( 'NONE', #112, .T. ) ;
#184 = COORDINATED_UNIVERSAL_TIME_OFFSET ( 2, 0, .AHEAD. ) ;
#185 = APPLICATION_CONTEXT ( 'configuration controlled 3d designs of mechanical parts and assemblies' ) ;
#186 = APPROVAL_ROLE ( '' ) ;
#187 = LOCAL_TIME ( 8, 11, 43.00000000000000000, #156 ) ;
#188 = APPROVAL_ROLE ( '' ) ;
#189 = CALENDAR_DATE ( 2021, 26, 2 ) ;
#190 = DATE_AND_TIME ( #88, #161 ) ;
#191 = ADVANCED_FACE ( 'NONE', ( #57 ), #116, .F. ) ;
#192 = ORIENTED_EDGE ( 'NONE', *, *, #55, .T. ) ;
#193 = AXIS2_PLACEMENT_3D ( 'NONE', #30, #62, #117 ) ;
#194 = CIRCLE ( 'NONE', #44, 38.10000000000000142 ) ;
#195 = APPLICATION_CONTEXT ( 'configuration controlled 3d designs of mechanical parts and assemblies' ) ;
#196 = ORIENTED_EDGE ( 'NONE', *, *, #170, .F. ) ;
#197 = DIRECTION ( 'NONE',  ( -0.000000000000000000, -0.000000000000000000, -1.000000000000000000 ) ) ;
#198 = FACE_OUTER_BOUND ( 'NONE', #37, .T. ) ;
#199 = DIRECTION ( 'NONE',  ( 1.000000000000000000, 0.000000000000000000, 0.000000000000000000 ) ) ;
#200 = CARTESIAN_POINT ( 'NONE',  ( 0.000000000000000000, 0.000000000000000000, 0.000000000000000000 ) ) ;
#201 = LOCAL_TIME ( 8, 11, 43.00000000000000000, #184 ) ;
ENDSEC;
END-ISO-10303-21;
