ISO-10303-21;
HEADER;
FILE_DESCRIPTION (( 'STEP AP203' ),
    '1' );
FILE_NAME ('010-0710E_N-BK7_PCV_window.STEP',
    '2021-02-26T06:11:12',
    ( '' ),
    ( '' ),
    'SwSTEP 2.0',
    'SolidWorks 2019',
    '' );
FILE_SCHEMA (( 'CONFIG_CONTROL_DESIGN' ));
ENDSEC;

DATA;
#1 = AXIS2_PLACEMENT_3D ( 'NONE', #5, #102, #133 ) ;
#2 = PRODUCT_RELATED_PRODUCT_CATEGORY ( 'detail', '', ( #62 ) ) ;
#3 = DIRECTION ( 'NONE',  ( 0.000000000000000000, 0.000000000000000000, 1.000000000000000000 ) ) ;
#4 = APPROVAL_DATE_TIME ( #191, #155 ) ;
#5 = CARTESIAN_POINT ( 'NONE',  ( 0.000000000000000000, 0.000000000000000000, 12.69999999999999929 ) ) ;
#6 = EDGE_CURVE ( 'NONE', #96, #77, #107, .T. ) ;
#7 = CC_DESIGN_APPROVAL ( #155, ( #63 ) ) ;
#8 = CARTESIAN_POINT ( 'NONE',  ( 38.10000000000030695, 4.665904304751453163E-15, 12.69999999999998863 ) ) ;
#9 = CIRCLE ( 'NONE', #75, 399.9999999999999432 ) ;
#10 = ORIENTED_EDGE ( 'NONE', *, *, #147, .T. ) ;
#11 = CARTESIAN_POINT ( 'NONE',  ( -38.10000000000000142, 0.000000000000000000, 12.69999999999999929 ) ) ;
#12 = PERSON_AND_ORGANIZATION_ROLE ( 'creator' ) ;
#13 = AXIS2_PLACEMENT_3D ( 'NONE', #186, #41, #169 ) ;
#14 = CC_DESIGN_SECURITY_CLASSIFICATION ( #31, ( #63 ) ) ;
#15 = APPROVAL_ROLE ( '' ) ;
#16 = FACE_OUTER_BOUND ( 'NONE', #141, .T. ) ;
#17 = CIRCLE ( 'NONE', #135, 38.10000000000000142 ) ;
#18 = UNCERTAINTY_MEASURE_WITH_UNIT (LENGTH_MEASURE( 1.000000000000000082E-05 ), #178, 'distance_accuracy_value', 'NONE');
#19 = DIRECTION ( 'NONE',  ( 0.000000000000000000, 0.000000000000000000, 1.000000000000000000 ) ) ;
#20 = PERSON_AND_ORGANIZATION_ROLE ( 'classification_officer' ) ;
#21 = CC_DESIGN_DATE_AND_TIME_ASSIGNMENT ( #94, #157, ( #24 ) ) ;
#22 = DIRECTION ( 'NONE',  ( 0.000000000000000000, 1.000000000000000000, -0.000000000000000000 ) ) ;
#23 = CYLINDRICAL_SURFACE ( 'NONE', #1, 38.10000000000000142 ) ;
#24 = PRODUCT_DEFINITION ( 'UNKNOWN', '', #63, #145 ) ;
#25 = EDGE_LOOP ( 'NONE', ( #153, #124, #177, #111 ) ) ;
#26 = CARTESIAN_POINT ( 'NONE',  ( 38.10000000000000142, 4.665904304751416087E-15, 0.000000000000000000 ) ) ;
#27 = AXIS2_PLACEMENT_3D ( 'NONE', #184, #197, #58 ) ;
#28 = COORDINATED_UNIVERSAL_TIME_OFFSET ( 2, 0, .AHEAD. ) ;
#29 = VECTOR ( 'NONE', #91, 1000.000000000000000 ) ;
#30 = LOCAL_TIME ( 8, 11, 12.00000000000000000, #80 ) ;
#31 = SECURITY_CLASSIFICATION ( '', '', #101 ) ;
#32 = VERTEX_POINT ( 'NONE', #26 ) ;
#33 = MANIFOLD_SOLID_BREP ( 'Cut-Revolve1', #156 ) ;
#34 = PERSON_AND_ORGANIZATION ( #67, #44 ) ;
#35 = CARTESIAN_POINT ( 'NONE',  ( 0.000000000000000000, 0.000000000000000000, 0.000000000000000000 ) ) ;
#36 =( NAMED_UNIT ( * ) PLANE_ANGLE_UNIT ( ) SI_UNIT ( $, .RADIAN. ) );
#37 = DIRECTION ( 'NONE',  ( 0.000000000000000000, 0.000000000000000000, 1.000000000000000000 ) ) ;
#38 = CARTESIAN_POINT ( 'NONE',  ( -38.10000000000020748, 0.000000000000000000, 12.69999999999998863 ) ) ;
#39 = APPROVAL_ROLE ( '' ) ;
#40 = ORIENTED_EDGE ( 'NONE', *, *, #66, .F. ) ;
#41 = DIRECTION ( 'NONE',  ( -0.000000000000000000, -0.000000000000000000, -1.000000000000000000 ) ) ;
#42 = AXIS2_PLACEMENT_3D ( 'NONE', #35, #19, #100 ) ;
#43 = EDGE_CURVE ( 'NONE', #105, #32, #199, .T. ) ;
#44 = ORGANIZATION ( 'UNSPECIFIED', 'UNSPECIFIED', '' ) ;
#45 = CALENDAR_DATE ( 2021, 26, 2 ) ;
#46 = PERSON_AND_ORGANIZATION ( #67, #44 ) ;
#47 = EDGE_CURVE ( 'NONE', #96, #105, #115, .T. ) ;
#48 = APPROVAL_PERSON_ORGANIZATION ( #200, #155, #126 ) ;
#49 = ORIENTED_EDGE ( 'NONE', *, *, #51, .F. ) ;
#50 = AXIS2_PLACEMENT_3D ( 'NONE', #143, #68, #83 ) ;
#51 = EDGE_CURVE ( 'NONE', #32, #77, #17, .T. ) ;
#52 = COORDINATED_UNIVERSAL_TIME_OFFSET ( 2, 0, .AHEAD. ) ;
#53 = CARTESIAN_POINT ( 'NONE',  ( -38.10000000000000142, 0.000000000000000000, 0.000000000000000000 ) ) ;
#54 = FACE_OUTER_BOUND ( 'NONE', #185, .T. ) ;
#55 = MECHANICAL_CONTEXT ( 'NONE', #95, 'mechanical' ) ;
#56 =( GEOMETRIC_REPRESENTATION_CONTEXT ( 3 ) GLOBAL_UNCERTAINTY_ASSIGNED_CONTEXT ( ( #18 ) ) GLOBAL_UNIT_ASSIGNED_CONTEXT ( ( #178, #36, #167 ) ) REPRESENTATION_CONTEXT ( 'NONE', 'WORKASPACE' ) );
#57 = CARTESIAN_POINT ( 'NONE',  ( 0.000000000000000000, 0.000000000000000000, 0.000000000000000000 ) ) ;
#58 = DIRECTION ( 'NONE',  ( 1.000000000000000000, 0.000000000000000000, 0.000000000000000000 ) ) ;
#59 = EDGE_LOOP ( 'NONE', ( #168, #116, #90 ) ) ;
#60 = CARTESIAN_POINT ( 'NONE',  ( 38.10000000000000142, 4.665904304751416087E-15, 12.69999999999999929 ) ) ;
#61 = CC_DESIGN_PERSON_AND_ORGANIZATION_ASSIGNMENT ( #148, #130, ( #63 ) ) ;
#62 = PRODUCT ( '010-0710E_N-BK7_PCV_window', '010-0710E_N-BK7_PCV_window', '', ( #55 ) ) ;
#63 = PRODUCT_DEFINITION_FORMATION_WITH_SPECIFIED_SOURCE ( 'ANY', '', #62, .NOT_KNOWN. ) ;
#64 = PERSON_AND_ORGANIZATION ( #67, #44 ) ;
#65 = AXIS2_PLACEMENT_3D ( 'NONE', #164, #121, #72 ) ;
#66 = EDGE_CURVE ( 'NONE', #77, #32, #201, .T. ) ;
#67 = PERSON ( 'UNSPECIFIED', 'UNSPECIFIED', 'UNSPECIFIED', ('UNSPECIFIED'), ('UNSPECIFIED'), ('UNSPECIFIED') ) ;
#68 = DIRECTION ( 'NONE',  ( -0.000000000000000000, -0.000000000000000000, -1.000000000000000000 ) ) ;
#69 = ADVANCED_FACE ( 'NONE', ( #162 ), #146, .F. ) ;
#70 = DATE_AND_TIME ( #181, #172 ) ;
#71 = CARTESIAN_POINT ( 'NONE',  ( 7.306519331029765352E-14, 0.000000000000000000, 10.88135315456445440 ) ) ;
#72 = DIRECTION ( 'NONE',  ( 1.000000000000000000, 0.000000000000000000, 0.000000000000000000 ) ) ;
#73 = APPLICATION_PROTOCOL_DEFINITION ( 'international standard', 'config_control_design', 1994, #95 ) ;
#74 = FACE_OUTER_BOUND ( 'NONE', #59, .T. ) ;
#75 = AXIS2_PLACEMENT_3D ( 'NONE', #194, #22, #149 ) ;
#76 = VERTEX_POINT ( 'NONE', #71 ) ;
#77 = VERTEX_POINT ( 'NONE', #53 ) ;
#78 = CC_DESIGN_DATE_AND_TIME_ASSIGNMENT ( #70, #86, ( #31 ) ) ;
#79 = ADVANCED_BREP_SHAPE_REPRESENTATION ( '010-0710E_N-BK7_PCV_window', ( #33, #98 ), #56 ) ;
#80 = COORDINATED_UNIVERSAL_TIME_OFFSET ( 2, 0, .AHEAD. ) ;
#81 = LOCAL_TIME ( 8, 11, 12.00000000000000000, #142 ) ;
#82 = SHAPE_DEFINITION_REPRESENTATION ( #92, #79 ) ;
#83 = DIRECTION ( 'NONE',  ( -1.000000000000000000, 0.000000000000000000, 0.000000000000000000 ) ) ;
#84 = ORIENTED_EDGE ( 'NONE', *, *, #66, .T. ) ;
#85 = CARTESIAN_POINT ( 'NONE',  ( 0.000000000000000000, 0.000000000000000000, 0.000000000000000000 ) ) ;
#86 = DATE_TIME_ROLE ( 'classification_date' ) ;
#87 = SPHERICAL_SURFACE ( 'NONE', #180, 400.0000000000000000 ) ;
#88 = DIRECTION ( 'NONE',  ( 1.224646799147353207E-16, -1.000000000000000000, 0.000000000000000000 ) ) ;
#89 = CALENDAR_DATE ( 2021, 26, 2 ) ;
#90 = ORIENTED_EDGE ( 'NONE', *, *, #165, .T. ) ;
#91 = DIRECTION ( 'NONE',  ( -0.000000000000000000, -0.000000000000000000, -1.000000000000000000 ) ) ;
#92 = PRODUCT_DEFINITION_SHAPE ( 'NONE', 'NONE',  #24 ) ;
#93 = APPROVAL ( #113, 'UNSPECIFIED' ) ;
#94 = DATE_AND_TIME ( #140, #160 ) ;
#95 = APPLICATION_CONTEXT ( 'configuration controlled 3d designs of mechanical parts and assemblies' ) ;
#96 = VERTEX_POINT ( 'NONE', #38 ) ;
#97 = CC_DESIGN_PERSON_AND_ORGANIZATION_ASSIGNMENT ( #150, #122, ( #62 ) ) ;
#98 = AXIS2_PLACEMENT_3D ( 'NONE', #57, #37, #195 ) ;
#99 = CYLINDRICAL_SURFACE ( 'NONE', #50, 38.10000000000000142 ) ;
#100 = DIRECTION ( 'NONE',  ( 1.000000000000000000, 0.000000000000000000, 0.000000000000000000 ) ) ;
#101 = SECURITY_CLASSIFICATION_LEVEL ( 'unclassified' ) ;
#102 = DIRECTION ( 'NONE',  ( -0.000000000000000000, -0.000000000000000000, -1.000000000000000000 ) ) ;
#103 = PERSON_AND_ORGANIZATION ( #67, #44 ) ;
#104 = CARTESIAN_POINT ( 'NONE',  ( 4.857225732735059864E-14, 0.000000000000000000, 410.8813531545644651 ) ) ;
#105 = VERTEX_POINT ( 'NONE', #8 ) ;
#106 = EDGE_CURVE ( 'NONE', #96, #76, #170, .T. ) ;
#107 = LINE ( 'NONE', #11, #29 ) ;
#108 = APPROVAL_PERSON_ORGANIZATION ( #103, #132, #39 ) ;
#109 = DATE_AND_TIME ( #89, #188 ) ;
#110 = VECTOR ( 'NONE', #125, 1000.000000000000000 ) ;
#111 = ORIENTED_EDGE ( 'NONE', *, *, #6, .F. ) ;
#112 = CC_DESIGN_PERSON_AND_ORGANIZATION_ASSIGNMENT ( #64, #12, ( #24 ) ) ;
#113 = APPROVAL_STATUS ( 'not_yet_approved' ) ;
#114 = CARTESIAN_POINT ( 'NONE',  ( 4.857225732735059864E-14, 0.000000000000000000, 410.8813531545644651 ) ) ;
#115 = CIRCLE ( 'NONE', #13, 38.10000000000025722 ) ;
#116 = ORIENTED_EDGE ( 'NONE', *, *, #147, .F. ) ;
#117 = PERSON_AND_ORGANIZATION_ROLE ( 'creator' ) ;
#118 = DIRECTION ( 'NONE',  ( 0.000000000000000000, 0.000000000000000000, 1.000000000000000000 ) ) ;
#119 = APPROVAL_PERSON_ORGANIZATION ( #46, #93, #15 ) ;
#120 = CC_DESIGN_PERSON_AND_ORGANIZATION_ASSIGNMENT ( #163, #20, ( #31 ) ) ;
#121 = DIRECTION ( 'NONE',  ( -0.000000000000000000, -0.000000000000000000, -1.000000000000000000 ) ) ;
#122 = PERSON_AND_ORGANIZATION_ROLE ( 'design_owner' ) ;
#123 = CIRCLE ( 'NONE', #65, 38.10000000000025722 ) ;
#124 = ORIENTED_EDGE ( 'NONE', *, *, #43, .T. ) ;
#125 = DIRECTION ( 'NONE',  ( -0.000000000000000000, -0.000000000000000000, -1.000000000000000000 ) ) ;
#126 = APPROVAL_ROLE ( '' ) ;
#127 = ADVANCED_FACE ( 'NONE', ( #74 ), #166, .F. ) ;
#128 = DATE_AND_TIME ( #190, #81 ) ;
#129 = DIRECTION ( 'NONE',  ( 0.000000000000000000, -1.000000000000000000, -0.000000000000000000 ) ) ;
#130 = PERSON_AND_ORGANIZATION_ROLE ( 'design_supplier' ) ;
#131 = CARTESIAN_POINT ( 'NONE',  ( 0.000000000000000000, 0.000000000000000000, 0.000000000000000000 ) ) ;
#132 = APPROVAL ( #183, 'UNSPECIFIED' ) ;
#133 = DIRECTION ( 'NONE',  ( -1.000000000000000000, 0.000000000000000000, 0.000000000000000000 ) ) ;
#134 = APPLICATION_PROTOCOL_DEFINITION ( 'international standard', 'config_control_design', 1994, #196 ) ;
#135 = AXIS2_PLACEMENT_3D ( 'NONE', #131, #118, #182 ) ;
#136 = FACE_OUTER_BOUND ( 'NONE', #25, .T. ) ;
#137 = ORIENTED_EDGE ( 'NONE', *, *, #106, .T. ) ;
#138 = ADVANCED_FACE ( 'NONE', ( #136 ), #23, .T. ) ;
#139 = CC_DESIGN_APPROVAL ( #132, ( #24 ) ) ;
#140 = CALENDAR_DATE ( 2021, 26, 2 ) ;
#141 = EDGE_LOOP ( 'NONE', ( #158, #10, #174, #84 ) ) ;
#142 = COORDINATED_UNIVERSAL_TIME_OFFSET ( 2, 0, .AHEAD. ) ;
#143 = CARTESIAN_POINT ( 'NONE',  ( 0.000000000000000000, 0.000000000000000000, 12.69999999999999929 ) ) ;
#144 = ORIENTED_EDGE ( 'NONE', *, *, #165, .F. ) ;
#145 = DESIGN_CONTEXT ( 'detailed design', #196, 'design' ) ;
#146 = PLANE ( 'NONE',  #159 ) ;
#147 = EDGE_CURVE ( 'NONE', #105, #96, #123, .T. ) ;
#148 = PERSON_AND_ORGANIZATION ( #67, #44 ) ;
#149 = DIRECTION ( 'NONE',  ( 0.000000000000000000, 0.000000000000000000, 1.000000000000000000 ) ) ;
#150 = PERSON_AND_ORGANIZATION ( #67, #44 ) ;
#151 = DIRECTION ( 'NONE',  ( 1.000000000000000000, 1.224646799147353207E-16, 0.000000000000000000 ) ) ;
#152 = COORDINATED_UNIVERSAL_TIME_OFFSET ( 2, 0, .AHEAD. ) ;
#153 = ORIENTED_EDGE ( 'NONE', *, *, #47, .T. ) ;
#154 = EDGE_LOOP ( 'NONE', ( #40, #49 ) ) ;
#155 = APPROVAL ( #189, 'UNSPECIFIED' ) ;
#156 = CLOSED_SHELL ( 'NONE', ( #171, #138, #175, #69, #127 ) ) ;
#157 = DATE_TIME_ROLE ( 'creation_date' ) ;
#158 = ORIENTED_EDGE ( 'NONE', *, *, #43, .F. ) ;
#159 = AXIS2_PLACEMENT_3D ( 'NONE', #85, #3, #192 ) ;
#160 = LOCAL_TIME ( 8, 11, 12.00000000000000000, #28 ) ;
#161 = DIRECTION ( 'NONE',  ( 1.000000000000000000, 0.000000000000000000, 0.000000000000000000 ) ) ;
#162 = FACE_OUTER_BOUND ( 'NONE', #154, .T. ) ;
#163 = PERSON_AND_ORGANIZATION ( #67, #44 ) ;
#164 = CARTESIAN_POINT ( 'NONE',  ( 4.857225732735059864E-14, 0.000000000000000000, 12.69999999999998863 ) ) ;
#165 = EDGE_CURVE ( 'NONE', #105, #76, #9, .T. ) ;
#166 = SPHERICAL_SURFACE ( 'NONE', #27, 400.0000000000000000 ) ;
#167 =( NAMED_UNIT ( * ) SI_UNIT ( $, .STERADIAN. ) SOLID_ANGLE_UNIT ( ) );
#168 = ORIENTED_EDGE ( 'NONE', *, *, #106, .F. ) ;
#169 = DIRECTION ( 'NONE',  ( 1.000000000000000000, 0.000000000000000000, 0.000000000000000000 ) ) ;
#170 = CIRCLE ( 'NONE', #187, 400.0000000000000000 ) ;
#171 = ADVANCED_FACE ( 'NONE', ( #54 ), #87, .F. ) ;
#172 = LOCAL_TIME ( 8, 11, 12.00000000000000000, #52 ) ;
#173 = APPROVAL_DATE_TIME ( #109, #132 ) ;
#174 = ORIENTED_EDGE ( 'NONE', *, *, #6, .T. ) ;
#175 = ADVANCED_FACE ( 'NONE', ( #16 ), #99, .T. ) ;
#176 = APPROVAL_DATE_TIME ( #128, #93 ) ;
#177 = ORIENTED_EDGE ( 'NONE', *, *, #51, .T. ) ;
#178 =( LENGTH_UNIT ( ) NAMED_UNIT ( * ) SI_UNIT ( .MILLI., .METRE. ) );
#179 = CC_DESIGN_PERSON_AND_ORGANIZATION_ASSIGNMENT ( #34, #117, ( #63 ) ) ;
#180 = AXIS2_PLACEMENT_3D ( 'NONE', #114, #129, #161 ) ;
#181 = CALENDAR_DATE ( 2021, 26, 2 ) ;
#182 = DIRECTION ( 'NONE',  ( 1.000000000000000000, 0.000000000000000000, 0.000000000000000000 ) ) ;
#183 = APPROVAL_STATUS ( 'not_yet_approved' ) ;
#184 = CARTESIAN_POINT ( 'NONE',  ( 4.857225732735059864E-14, 0.000000000000000000, 410.8813531545644651 ) ) ;
#185 = EDGE_LOOP ( 'NONE', ( #198, #137, #144 ) ) ;
#186 = CARTESIAN_POINT ( 'NONE',  ( 4.857225732735059864E-14, 0.000000000000000000, 12.69999999999998863 ) ) ;
#187 = AXIS2_PLACEMENT_3D ( 'NONE', #104, #88, #151 ) ;
#188 = LOCAL_TIME ( 8, 11, 12.00000000000000000, #152 ) ;
#189 = APPROVAL_STATUS ( 'not_yet_approved' ) ;
#190 = CALENDAR_DATE ( 2021, 26, 2 ) ;
#191 = DATE_AND_TIME ( #45, #30 ) ;
#192 = DIRECTION ( 'NONE',  ( 1.000000000000000000, 0.000000000000000000, -0.000000000000000000 ) ) ;
#193 = CC_DESIGN_APPROVAL ( #93, ( #31 ) ) ;
#194 = CARTESIAN_POINT ( 'NONE',  ( 4.857225732735059864E-14, 0.000000000000000000, 410.8813531545644651 ) ) ;
#195 = DIRECTION ( 'NONE',  ( 1.000000000000000000, 0.000000000000000000, 0.000000000000000000 ) ) ;
#196 = APPLICATION_CONTEXT ( 'configuration controlled 3d designs of mechanical parts and assemblies' ) ;
#197 = DIRECTION ( 'NONE',  ( 0.000000000000000000, -1.000000000000000000, -0.000000000000000000 ) ) ;
#198 = ORIENTED_EDGE ( 'NONE', *, *, #47, .F. ) ;
#199 = LINE ( 'NONE', #60, #110 ) ;
#200 = PERSON_AND_ORGANIZATION ( #67, #44 ) ;
#201 = CIRCLE ( 'NONE', #42, 38.10000000000000142 ) ;
ENDSEC;
END-ISO-10303-21;
