ISO-10303-21;
HEADER;
FILE_DESCRIPTION (( 'STEP AP203' ),
    '1' );
FILE_NAME ('010-0708E_N-BK7_PCV_window.STEP',
    '2021-02-26T06:10:41',
    ( '' ),
    ( '' ),
    'SwSTEP 2.0',
    'SolidWorks 2019',
    '' );
FILE_SCHEMA (( 'CONFIG_CONTROL_DESIGN' ));
ENDSEC;

DATA;
#1 = CARTESIAN_POINT ( 'NONE',  ( 0.000000000000000000, 0.000000000000000000, 0.000000000000000000 ) ) ;
#2 = EDGE_LOOP ( 'NONE', ( #34, #191, #49, #15 ) ) ;
#3 = PLANE ( 'NONE',  #186 ) ;
#4 = ADVANCED_FACE ( 'NONE', ( #17 ), #189, .F. ) ;
#5 = APPLICATION_CONTEXT ( 'configuration controlled 3d designs of mechanical parts and assemblies' ) ;
#6 = ORIENTED_EDGE ( 'NONE', *, *, #158, .T. ) ;
#7 = CARTESIAN_POINT ( 'NONE',  ( 0.000000000000000000, 0.000000000000000000, 12.69999999999999929 ) ) ;
#8 = DIRECTION ( 'NONE',  ( 1.000000000000000000, 0.000000000000000000, 0.000000000000000000 ) ) ;
#9 = PERSON_AND_ORGANIZATION_ROLE ( 'classification_officer' ) ;
#10 = APPROVAL_ROLE ( '' ) ;
#11 = CIRCLE ( 'NONE', #47, 38.09999999999971010 ) ;
#12 = APPROVAL_STATUS ( 'not_yet_approved' ) ;
#13 = DIRECTION ( 'NONE',  ( 0.000000000000000000, 0.000000000000000000, 1.000000000000000000 ) ) ;
#14 = EDGE_LOOP ( 'NONE', ( #30, #92 ) ) ;
#15 = ORIENTED_EDGE ( 'NONE', *, *, #131, .F. ) ;
#16 = PRODUCT ( '010-0708E_N-BK7_PCV_window', '010-0708E_N-BK7_PCV_window', '', ( #66 ) ) ;
#17 = FACE_OUTER_BOUND ( 'NONE', #157, .T. ) ;
#18 = AXIS2_PLACEMENT_3D ( 'NONE', #193, #35, #50 ) ;
#19 = APPROVAL ( #124, 'UNSPECIFIED' ) ;
#20 = VERTEX_POINT ( 'NONE', #175 ) ;
#21 = CYLINDRICAL_SURFACE ( 'NONE', #27, 38.10000000000000142 ) ;
#22 = DIRECTION ( 'NONE',  ( 0.000000000000000000, 0.000000000000000000, 1.000000000000000000 ) ) ;
#23 = DATE_TIME_ROLE ( 'creation_date' ) ;
#24 = APPLICATION_PROTOCOL_DEFINITION ( 'international standard', 'config_control_design', 1994, #5 ) ;
#25 = DATE_AND_TIME ( #166, #79 ) ;
#26 = EDGE_CURVE ( 'NONE', #76, #111, #11, .T. ) ;
#27 = AXIS2_PLACEMENT_3D ( 'NONE', #7, #28, #71 ) ;
#28 = DIRECTION ( 'NONE',  ( -0.000000000000000000, -0.000000000000000000, -1.000000000000000000 ) ) ;
#29 =( NAMED_UNIT ( * ) PLANE_ANGLE_UNIT ( ) SI_UNIT ( $, .RADIAN. ) );
#30 = ORIENTED_EDGE ( 'NONE', *, *, #158, .F. ) ;
#31 = EDGE_LOOP ( 'NONE', ( #173, #116, #156 ) ) ;
#32 = CARTESIAN_POINT ( 'NONE',  ( 3.469446951953614189E-14, 0.000000000000000000, 12.69999999999998863 ) ) ;
#33 = AXIS2_PLACEMENT_3D ( 'NONE', #65, #51, #82 ) ;
#34 = ORIENTED_EDGE ( 'NONE', *, *, #135, .T. ) ;
#35 = DIRECTION ( 'NONE',  ( 1.224646799147353207E-16, -1.000000000000000000, 0.000000000000000000 ) ) ;
#36 = CARTESIAN_POINT ( 'NONE',  ( 0.000000000000000000, 0.000000000000000000, 0.000000000000000000 ) ) ;
#37 = CC_DESIGN_SECURITY_CLASSIFICATION ( #126, ( #100 ) ) ;
#38 = COORDINATED_UNIVERSAL_TIME_OFFSET ( 2, 0, .AHEAD. ) ;
#39 = DIRECTION ( 'NONE',  ( 1.000000000000000000, 0.000000000000000000, 0.000000000000000000 ) ) ;
#40 = DATE_TIME_ROLE ( 'classification_date' ) ;
#41 = APPROVAL ( #12, 'UNSPECIFIED' ) ;
#42 = VECTOR ( 'NONE', #118, 1000.000000000000000 ) ;
#43 = CYLINDRICAL_SURFACE ( 'NONE', #190, 38.10000000000000142 ) ;
#44 = DIRECTION ( 'NONE',  ( -0.000000000000000000, -0.000000000000000000, -1.000000000000000000 ) ) ;
#45 = EDGE_LOOP ( 'NONE', ( #144, #142, #112, #6 ) ) ;
#46 = ORIENTED_EDGE ( 'NONE', *, *, #62, .T. ) ;
#47 = AXIS2_PLACEMENT_3D ( 'NONE', #32, #159, #78 ) ;
#48 = ADVANCED_FACE ( 'NONE', ( #143 ), #3, .F. ) ;
#49 = ORIENTED_EDGE ( 'NONE', *, *, #138, .T. ) ;
#50 = DIRECTION ( 'NONE',  ( 1.000000000000000000, 1.224646799147353207E-16, 0.000000000000000000 ) ) ;
#51 = DIRECTION ( 'NONE',  ( 0.000000000000000000, -1.000000000000000000, -0.000000000000000000 ) ) ;
#52 = AXIS2_PLACEMENT_3D ( 'NONE', #36, #22, #8 ) ;
#53 = APPROVAL_PERSON_ORGANIZATION ( #67, #19, #134 ) ;
#54 = CALENDAR_DATE ( 2021, 26, 2 ) ;
#55 = DATE_AND_TIME ( #69, #91 ) ;
#56 = PERSON_AND_ORGANIZATION ( #114, #105 ) ;
#57 = PERSON_AND_ORGANIZATION ( #114, #105 ) ;
#58 = CARTESIAN_POINT ( 'NONE',  ( 0.000000000000000000, 0.000000000000000000, 12.69999999999999929 ) ) ;
#59 = VECTOR ( 'NONE', #171, 1000.000000000000000 ) ;
#60 = CIRCLE ( 'NONE', #160, 38.09999999999971010 ) ;
#61 = DIRECTION ( 'NONE',  ( 1.000000000000000000, 0.000000000000000000, 0.000000000000000000 ) ) ;
#62 = EDGE_CURVE ( 'NONE', #111, #80, #195, .T. ) ;
#63 = LOCAL_TIME ( 8, 10, 41.00000000000000000, #196 ) ;
#64 = DIRECTION ( 'NONE',  ( 0.000000000000000000, 0.000000000000000000, 1.000000000000000000 ) ) ;
#65 = CARTESIAN_POINT ( 'NONE',  ( 3.469446951953614189E-14, 0.000000000000000000, 310.2708151012124631 ) ) ;
#66 = MECHANICAL_CONTEXT ( 'NONE', #115, 'mechanical' ) ;
#67 = PERSON_AND_ORGANIZATION ( #114, #105 ) ;
#68 = AXIS2_PLACEMENT_3D ( 'NONE', #152, #89, #39 ) ;
#69 = CALENDAR_DATE ( 2021, 26, 2 ) ;
#70 = PERSON_AND_ORGANIZATION_ROLE ( 'creator' ) ;
#71 = DIRECTION ( 'NONE',  ( -1.000000000000000000, 0.000000000000000000, 0.000000000000000000 ) ) ;
#72 = CC_DESIGN_DATE_AND_TIME_ASSIGNMENT ( #136, #40, ( #126 ) ) ;
#73 =( LENGTH_UNIT ( ) NAMED_UNIT ( * ) SI_UNIT ( .MILLI., .METRE. ) );
#74 = LOCAL_TIME ( 8, 10, 41.00000000000000000, #38 ) ;
#75 = CC_DESIGN_PERSON_AND_ORGANIZATION_ASSIGNMENT ( #57, #9, ( #126 ) ) ;
#76 = VERTEX_POINT ( 'NONE', #81 ) ;
#77 = PRODUCT_DEFINITION_SHAPE ( 'NONE', 'NONE',  #153 ) ;
#78 = DIRECTION ( 'NONE',  ( 1.000000000000000000, 0.000000000000000000, 0.000000000000000000 ) ) ;
#79 = LOCAL_TIME ( 8, 10, 41.00000000000000000, #103 ) ;
#80 = VERTEX_POINT ( 'NONE', #194 ) ;
#81 = CARTESIAN_POINT ( 'NONE',  ( 38.09999999999974563, 4.665904304751401098E-15, 12.69999999999998863 ) ) ;
#82 = DIRECTION ( 'NONE',  ( 1.000000000000000000, 0.000000000000000000, 0.000000000000000000 ) ) ;
#83 = UNCERTAINTY_MEASURE_WITH_UNIT (LENGTH_MEASURE( 1.000000000000000082E-05 ), #73, 'distance_accuracy_value', 'NONE');
#84 = CC_DESIGN_PERSON_AND_ORGANIZATION_ASSIGNMENT ( #56, #123, ( #16 ) ) ;
#85 = APPROVAL_ROLE ( '' ) ;
#86 = COORDINATED_UNIVERSAL_TIME_OFFSET ( 2, 0, .AHEAD. ) ;
#87 = CLOSED_SHELL ( 'NONE', ( #4, #167, #150, #48, #96 ) ) ;
#88 = SECURITY_CLASSIFICATION_LEVEL ( 'unclassified' ) ;
#89 = DIRECTION ( 'NONE',  ( 0.000000000000000000, 0.000000000000000000, 1.000000000000000000 ) ) ;
#90 = DIRECTION ( 'NONE',  ( -1.000000000000000000, 0.000000000000000000, 0.000000000000000000 ) ) ;
#91 = LOCAL_TIME ( 8, 10, 41.00000000000000000, #86 ) ;
#92 = ORIENTED_EDGE ( 'NONE', *, *, #138, .F. ) ;
#93 = ORIENTED_EDGE ( 'NONE', *, *, #188, .F. ) ;
#94 = DIRECTION ( 'NONE',  ( 0.000000000000000000, -1.000000000000000000, -0.000000000000000000 ) ) ;
#95 = SHAPE_DEFINITION_REPRESENTATION ( #77, #169 ) ;
#96 = ADVANCED_FACE ( 'NONE', ( #176 ), #145, .F. ) ;
#97 = CARTESIAN_POINT ( 'NONE',  ( -38.10000000000000142, 0.000000000000000000, 12.69999999999999929 ) ) ;
#98 = DIRECTION ( 'NONE',  ( 1.000000000000000000, 0.000000000000000000, -0.000000000000000000 ) ) ;
#99 = PRODUCT_RELATED_PRODUCT_CATEGORY ( 'detail', '', ( #16 ) ) ;
#100 = PRODUCT_DEFINITION_FORMATION_WITH_SPECIFIED_SOURCE ( 'ANY', '', #16, .NOT_KNOWN. ) ;
#101 = PERSON_AND_ORGANIZATION ( #114, #105 ) ;
#102 = PERSON_AND_ORGANIZATION ( #114, #105 ) ;
#103 = COORDINATED_UNIVERSAL_TIME_OFFSET ( 2, 0, .AHEAD. ) ;
#104 = APPLICATION_PROTOCOL_DEFINITION ( 'international standard', 'config_control_design', 1994, #115 ) ;
#105 = ORGANIZATION ( 'UNSPECIFIED', 'UNSPECIFIED', '' ) ;
#106 = CIRCLE ( 'NONE', #52, 38.10000000000000142 ) ;
#107 = AXIS2_PLACEMENT_3D ( 'NONE', #108, #139, #200 ) ;
#108 = CARTESIAN_POINT ( 'NONE',  ( 0.000000000000000000, 0.000000000000000000, 0.000000000000000000 ) ) ;
#109 =( NAMED_UNIT ( * ) SI_UNIT ( $, .STERADIAN. ) SOLID_ANGLE_UNIT ( ) );
#110 = APPROVAL_PERSON_ORGANIZATION ( #149, #174, #10 ) ;
#111 = VERTEX_POINT ( 'NONE', #162 ) ;
#112 = ORIENTED_EDGE ( 'NONE', *, *, #131, .T. ) ;
#113 = CC_DESIGN_PERSON_AND_ORGANIZATION_ASSIGNMENT ( #182, #180, ( #100 ) ) ;
#114 = PERSON ( 'UNSPECIFIED', 'UNSPECIFIED', 'UNSPECIFIED', ('UNSPECIFIED'), ('UNSPECIFIED'), ('UNSPECIFIED') ) ;
#115 = APPLICATION_CONTEXT ( 'configuration controlled 3d designs of mechanical parts and assemblies' ) ;
#116 = ORIENTED_EDGE ( 'NONE', *, *, #26, .F. ) ;
#117 = CARTESIAN_POINT ( 'NONE',  ( 3.469446951953614189E-14, 0.000000000000000000, 12.69999999999998863 ) ) ;
#118 = DIRECTION ( 'NONE',  ( -0.000000000000000000, -0.000000000000000000, -1.000000000000000000 ) ) ;
#119 = CC_DESIGN_DATE_AND_TIME_ASSIGNMENT ( #55, #23, ( #153 ) ) ;
#120 = DESIGN_CONTEXT ( 'detailed design', #5, 'design' ) ;
#121 = DATE_AND_TIME ( #54, #63 ) ;
#122 = APPROVAL_DATE_TIME ( #183, #41 ) ;
#123 = PERSON_AND_ORGANIZATION_ROLE ( 'design_owner' ) ;
#124 = APPROVAL_STATUS ( 'not_yet_approved' ) ;
#125 = CARTESIAN_POINT ( 'NONE',  ( 38.10000000000000142, 4.665904304751416087E-15, 12.69999999999999929 ) ) ;
#126 = SECURITY_CLASSIFICATION ( '', '', #88 ) ;
#127 = CARTESIAN_POINT ( 'NONE',  ( 3.469446951953614189E-14, 0.000000000000000000, 310.2708151012124631 ) ) ;
#128 = ORIENTED_EDGE ( 'NONE', *, *, #135, .F. ) ;
#129 = CARTESIAN_POINT ( 'NONE',  ( 3.469446951953614189E-14, 0.000000000000000000, 310.2708151012124631 ) ) ;
#130 = CIRCLE ( 'NONE', #163, 299.9999999999999432 ) ;
#131 = EDGE_CURVE ( 'NONE', #111, #141, #132, .T. ) ;
#132 = LINE ( 'NONE', #97, #42 ) ;
#133 = APPROVAL_STATUS ( 'not_yet_approved' ) ;
#134 = APPROVAL_ROLE ( '' ) ;
#135 = EDGE_CURVE ( 'NONE', #111, #76, #60, .T. ) ;
#136 = DATE_AND_TIME ( #148, #178 ) ;
#137 = APPROVAL_PERSON_ORGANIZATION ( #198, #41, #85 ) ;
#138 = EDGE_CURVE ( 'NONE', #20, #141, #106, .T. ) ;
#139 = DIRECTION ( 'NONE',  ( 0.000000000000000000, 0.000000000000000000, 1.000000000000000000 ) ) ;
#140 = AXIS2_PLACEMENT_3D ( 'NONE', #129, #94, #61 ) ;
#141 = VERTEX_POINT ( 'NONE', #161 ) ;
#142 = ORIENTED_EDGE ( 'NONE', *, *, #26, .T. ) ;
#143 = FACE_OUTER_BOUND ( 'NONE', #14, .T. ) ;
#144 = ORIENTED_EDGE ( 'NONE', *, *, #185, .F. ) ;
#145 = SPHERICAL_SURFACE ( 'NONE', #33, 299.9999999999999432 ) ;
#146 = MANIFOLD_SOLID_BREP ( 'Cut-Revolve1', #87 ) ;
#147 = FACE_OUTER_BOUND ( 'NONE', #45, .T. ) ;
#148 = CALENDAR_DATE ( 2021, 26, 2 ) ;
#149 = PERSON_AND_ORGANIZATION ( #114, #105 ) ;
#150 = ADVANCED_FACE ( 'NONE', ( #147 ), #21, .T. ) ;
#151 = APPROVAL_DATE_TIME ( #25, #19 ) ;
#152 = CARTESIAN_POINT ( 'NONE',  ( 0.000000000000000000, 0.000000000000000000, 0.000000000000000000 ) ) ;
#153 = PRODUCT_DEFINITION ( 'UNKNOWN', '', #100, #120 ) ;
#154 = DIRECTION ( 'NONE',  ( 0.000000000000000000, 1.000000000000000000, -0.000000000000000000 ) ) ;
#155 = CC_DESIGN_PERSON_AND_ORGANIZATION_ASSIGNMENT ( #102, #165, ( #153 ) ) ;
#156 = ORIENTED_EDGE ( 'NONE', *, *, #188, .T. ) ;
#157 = EDGE_LOOP ( 'NONE', ( #128, #46, #93 ) ) ;
#158 = EDGE_CURVE ( 'NONE', #141, #20, #184, .T. ) ;
#159 = DIRECTION ( 'NONE',  ( -0.000000000000000000, -0.000000000000000000, -1.000000000000000000 ) ) ;
#160 = AXIS2_PLACEMENT_3D ( 'NONE', #117, #177, #192 ) ;
#161 = CARTESIAN_POINT ( 'NONE',  ( -38.10000000000000142, 0.000000000000000000, 0.000000000000000000 ) ) ;
#162 = CARTESIAN_POINT ( 'NONE',  ( -38.09999999999967457, 0.000000000000000000, 12.69999999999998863 ) ) ;
#163 = AXIS2_PLACEMENT_3D ( 'NONE', #127, #154, #13 ) ;
#164 = COORDINATED_UNIVERSAL_TIME_OFFSET ( 2, 0, .AHEAD. ) ;
#165 = PERSON_AND_ORGANIZATION_ROLE ( 'creator' ) ;
#166 = CALENDAR_DATE ( 2021, 26, 2 ) ;
#167 = ADVANCED_FACE ( 'NONE', ( #187 ), #43, .T. ) ;
#168 = CC_DESIGN_APPROVAL ( #41, ( #100 ) ) ;
#169 = ADVANCED_BREP_SHAPE_REPRESENTATION ( '010-0708E_N-BK7_PCV_window', ( #146, #68 ), #201 ) ;
#170 = LINE ( 'NONE', #125, #59 ) ;
#171 = DIRECTION ( 'NONE',  ( -0.000000000000000000, -0.000000000000000000, -1.000000000000000000 ) ) ;
#172 = CC_DESIGN_APPROVAL ( #174, ( #153 ) ) ;
#173 = ORIENTED_EDGE ( 'NONE', *, *, #62, .F. ) ;
#174 = APPROVAL ( #133, 'UNSPECIFIED' ) ;
#175 = CARTESIAN_POINT ( 'NONE',  ( 38.10000000000000142, 4.665904304751416087E-15, 0.000000000000000000 ) ) ;
#176 = FACE_OUTER_BOUND ( 'NONE', #31, .T. ) ;
#177 = DIRECTION ( 'NONE',  ( -0.000000000000000000, -0.000000000000000000, -1.000000000000000000 ) ) ;
#178 = LOCAL_TIME ( 8, 10, 41.00000000000000000, #164 ) ;
#179 = CC_DESIGN_PERSON_AND_ORGANIZATION_ASSIGNMENT ( #101, #70, ( #100 ) ) ;
#180 = PERSON_AND_ORGANIZATION_ROLE ( 'design_supplier' ) ;
#181 = APPROVAL_DATE_TIME ( #121, #174 ) ;
#182 = PERSON_AND_ORGANIZATION ( #114, #105 ) ;
#183 = DATE_AND_TIME ( #199, #74 ) ;
#184 = CIRCLE ( 'NONE', #107, 38.10000000000000142 ) ;
#185 = EDGE_CURVE ( 'NONE', #76, #20, #170, .T. ) ;
#186 = AXIS2_PLACEMENT_3D ( 'NONE', #1, #64, #98 ) ;
#187 = FACE_OUTER_BOUND ( 'NONE', #2, .T. ) ;
#188 = EDGE_CURVE ( 'NONE', #76, #80, #130, .T. ) ;
#189 = SPHERICAL_SURFACE ( 'NONE', #140, 299.9999999999999432 ) ;
#190 = AXIS2_PLACEMENT_3D ( 'NONE', #58, #44, #90 ) ;
#191 = ORIENTED_EDGE ( 'NONE', *, *, #185, .T. ) ;
#192 = DIRECTION ( 'NONE',  ( 1.000000000000000000, 0.000000000000000000, 0.000000000000000000 ) ) ;
#193 = CARTESIAN_POINT ( 'NONE',  ( 3.469446951953614189E-14, 0.000000000000000000, 310.2708151012124631 ) ) ;
#194 = CARTESIAN_POINT ( 'NONE',  ( 5.306417150674643935E-14, 0.000000000000000000, 10.27081510121252705 ) ) ;
#195 = CIRCLE ( 'NONE', #18, 299.9999999999999432 ) ;
#196 = COORDINATED_UNIVERSAL_TIME_OFFSET ( 2, 0, .AHEAD. ) ;
#197 = CC_DESIGN_APPROVAL ( #19, ( #126 ) ) ;
#198 = PERSON_AND_ORGANIZATION ( #114, #105 ) ;
#199 = CALENDAR_DATE ( 2021, 26, 2 ) ;
#200 = DIRECTION ( 'NONE',  ( 1.000000000000000000, 0.000000000000000000, 0.000000000000000000 ) ) ;
#201 =( GEOMETRIC_REPRESENTATION_CONTEXT ( 3 ) GLOBAL_UNCERTAINTY_ASSIGNED_CONTEXT ( ( #83 ) ) GLOBAL_UNIT_ASSIGNED_CONTEXT ( ( #73, #29, #109 ) ) REPRESENTATION_CONTEXT ( 'NONE', 'WORKASPACE' ) );
ENDSEC;
END-ISO-10303-21;
