ISO-10303-21;
HEADER;
FILE_DESCRIPTION (( 'STEP AP203' ),
    '1' );
FILE_NAME ('010-0705E_N-BK7_PCV_window.STEP',
    '2021-02-26T06:09:57',
    ( '' ),
    ( '' ),
    'SwSTEP 2.0',
    'SolidWorks 2019',
    '' );
FILE_SCHEMA (( 'CONFIG_CONTROL_DESIGN' ));
ENDSEC;

DATA;
#1 = DIRECTION ( 'NONE',  ( 1.224646799147353207E-16, -1.000000000000000000, 0.000000000000000000 ) ) ;
#2 = DIRECTION ( 'NONE',  ( 1.000000000000000000, 0.000000000000000000, 0.000000000000000000 ) ) ;
#3 = APPROVAL_PERSON_ORGANIZATION ( #57, #4, #165 ) ;
#4 = APPROVAL ( #56, 'UNSPECIFIED' ) ;
#5 = DATE_TIME_ROLE ( 'creation_date' ) ;
#6 =( LENGTH_UNIT ( ) NAMED_UNIT ( * ) SI_UNIT ( .MILLI., .METRE. ) );
#7 = AXIS2_PLACEMENT_3D ( 'NONE', #122, #105, #195 ) ;
#8 = APPROVAL ( #34, 'UNSPECIFIED' ) ;
#9 = EDGE_LOOP ( 'NONE', ( #62, #197, #143, #74 ) ) ;
#10 = DIRECTION ( 'NONE',  ( 0.000000000000000000, 1.000000000000000000, -0.000000000000000000 ) ) ;
#11 = DIRECTION ( 'NONE',  ( 0.000000000000000000, -1.000000000000000000, -0.000000000000000000 ) ) ;
#12 = MANIFOLD_SOLID_BREP ( 'Cut-Revolve1', #190 ) ;
#13 = ORIENTED_EDGE ( 'NONE', *, *, #139, .F. ) ;
#14 = APPROVAL_PERSON_ORGANIZATION ( #35, #83, #173 ) ;
#15 = CARTESIAN_POINT ( 'NONE',  ( 2.081668171172168513E-14, 0.000000000000000000, 209.0374391194914097 ) ) ;
#16 = FACE_OUTER_BOUND ( 'NONE', #9, .T. ) ;
#17 = DESIGN_CONTEXT ( 'detailed design', #127, 'design' ) ;
#18 = LOCAL_TIME ( 8, 9, 57.00000000000000000, #174 ) ;
#19 = DIRECTION ( 'NONE',  ( -0.000000000000000000, -0.000000000000000000, -1.000000000000000000 ) ) ;
#20 =( NAMED_UNIT ( * ) PLANE_ANGLE_UNIT ( ) SI_UNIT ( $, .RADIAN. ) );
#21 = LOCAL_TIME ( 8, 9, 57.00000000000000000, #133 ) ;
#22 = CALENDAR_DATE ( 2021, 26, 2 ) ;
#23 = PERSON_AND_ORGANIZATION_ROLE ( 'creator' ) ;
#24 = SECURITY_CLASSIFICATION_LEVEL ( 'unclassified' ) ;
#25 = EDGE_LOOP ( 'NONE', ( #32, #13 ) ) ;
#26 = ADVANCED_FACE ( 'NONE', ( #58 ), #179, .F. ) ;
#27 = DIRECTION ( 'NONE',  ( 0.000000000000000000, 0.000000000000000000, 1.000000000000000000 ) ) ;
#28 = ADVANCED_BREP_SHAPE_REPRESENTATION ( '010-0705E_N-BK7_PCV_window', ( #12, #7 ), #147 ) ;
#29 = CYLINDRICAL_SURFACE ( 'NONE', #49, 38.10000000000000142 ) ;
#30 = CC_DESIGN_DATE_AND_TIME_ASSIGNMENT ( #101, #5, ( #170 ) ) ;
#31 = APPLICATION_PROTOCOL_DEFINITION ( 'international standard', 'config_control_design', 1994, #127 ) ;
#32 = ORIENTED_EDGE ( 'NONE', *, *, #43, .F. ) ;
#33 = CC_DESIGN_APPROVAL ( #83, ( #82 ) ) ;
#34 = APPROVAL_STATUS ( 'not_yet_approved' ) ;
#35 = PERSON_AND_ORGANIZATION ( #118, #175 ) ;
#36 = APPLICATION_PROTOCOL_DEFINITION ( 'international standard', 'config_control_design', 1994, #172 ) ;
#37 = ORIENTED_EDGE ( 'NONE', *, *, #102, .T. ) ;
#38 = CIRCLE ( 'NONE', #132, 38.10000000000000142 ) ;
#39 = CC_DESIGN_PERSON_AND_ORGANIZATION_ASSIGNMENT ( #176, #130, ( #170 ) ) ;
#40 = DIRECTION ( 'NONE',  ( 1.000000000000000000, 0.000000000000000000, 0.000000000000000000 ) ) ;
#41 = PRODUCT_DEFINITION_SHAPE ( 'NONE', 'NONE',  #170 ) ;
#42 = ORIENTED_EDGE ( 'NONE', *, *, #61, .F. ) ;
#43 = EDGE_CURVE ( 'NONE', #148, #79, #38, .T. ) ;
#44 = PLANE ( 'NONE',  #93 ) ;
#45 = CARTESIAN_POINT ( 'NONE',  ( 2.081668171172168513E-14, 0.000000000000000000, 12.69999999999998863 ) ) ;
#46 = DIRECTION ( 'NONE',  ( 1.000000000000000000, 0.000000000000000000, -0.000000000000000000 ) ) ;
#47 = PERSON_AND_ORGANIZATION ( #118, #175 ) ;
#48 = DATE_AND_TIME ( #22, #162 ) ;
#49 = AXIS2_PLACEMENT_3D ( 'NONE', #154, #59, #119 ) ;
#50 = PERSON_AND_ORGANIZATION_ROLE ( 'design_owner' ) ;
#51 = ORIENTED_EDGE ( 'NONE', *, *, #102, .F. ) ;
#52 = CIRCLE ( 'NONE', #188, 38.09999999999989484 ) ;
#53 = CC_DESIGN_DATE_AND_TIME_ASSIGNMENT ( #112, #69, ( #124 ) ) ;
#54 = CARTESIAN_POINT ( 'NONE',  ( 38.09999999999991616, 4.665904304751410565E-15, 12.69999999999998863 ) ) ;
#55 = VERTEX_POINT ( 'NONE', #54 ) ;
#56 = APPROVAL_STATUS ( 'not_yet_approved' ) ;
#57 = PERSON_AND_ORGANIZATION ( #118, #175 ) ;
#58 = FACE_OUTER_BOUND ( 'NONE', #75, .T. ) ;
#59 = DIRECTION ( 'NONE',  ( -0.000000000000000000, -0.000000000000000000, -1.000000000000000000 ) ) ;
#60 = EDGE_LOOP ( 'NONE', ( #95, #37, #160, #63 ) ) ;
#61 = EDGE_CURVE ( 'NONE', #55, #141, #180, .T. ) ;
#62 = ORIENTED_EDGE ( 'NONE', *, *, #146, .T. ) ;
#63 = ORIENTED_EDGE ( 'NONE', *, *, #43, .T. ) ;
#64 = CC_DESIGN_PERSON_AND_ORGANIZATION_ASSIGNMENT ( #47, #50, ( #193 ) ) ;
#65 = CARTESIAN_POINT ( 'NONE',  ( 2.081668171172168513E-14, 0.000000000000000000, 209.0374391194914097 ) ) ;
#66 = CALENDAR_DATE ( 2021, 26, 2 ) ;
#67 = CARTESIAN_POINT ( 'NONE',  ( 38.10000000000000142, 4.665904304751416087E-15, 0.000000000000000000 ) ) ;
#68 = CC_DESIGN_PERSON_AND_ORGANIZATION_ASSIGNMENT ( #156, #23, ( #82 ) ) ;
#69 = DATE_TIME_ROLE ( 'classification_date' ) ;
#70 = CALENDAR_DATE ( 2021, 26, 2 ) ;
#71 = AXIS2_PLACEMENT_3D ( 'NONE', #201, #1, #164 ) ;
#72 = DIRECTION ( 'NONE',  ( -0.000000000000000000, -0.000000000000000000, -1.000000000000000000 ) ) ;
#73 = CIRCLE ( 'NONE', #86, 38.09999999999989484 ) ;
#74 = ORIENTED_EDGE ( 'NONE', *, *, #166, .F. ) ;
#75 = EDGE_LOOP ( 'NONE', ( #126, #51, #131 ) ) ;
#76 = APPROVAL_DATE_TIME ( #48, #83 ) ;
#77 = ADVANCED_FACE ( 'NONE', ( #16 ), #167, .T. ) ;
#78 = PERSON_AND_ORGANIZATION ( #118, #175 ) ;
#79 = VERTEX_POINT ( 'NONE', #67 ) ;
#80 = AXIS2_PLACEMENT_3D ( 'NONE', #65, #11, #40 ) ;
#81 = PERSON_AND_ORGANIZATION_ROLE ( 'classification_officer' ) ;
#82 = PRODUCT_DEFINITION_FORMATION_WITH_SPECIFIED_SOURCE ( 'ANY', '', #193, .NOT_KNOWN. ) ;
#83 = APPROVAL ( #91, 'UNSPECIFIED' ) ;
#84 = CARTESIAN_POINT ( 'NONE',  ( -38.10000000000000142, 0.000000000000000000, 0.000000000000000000 ) ) ;
#85 = CARTESIAN_POINT ( 'NONE',  ( 0.000000000000000000, 0.000000000000000000, 12.69999999999999929 ) ) ;
#86 = AXIS2_PLACEMENT_3D ( 'NONE', #116, #72, #187 ) ;
#87 = CARTESIAN_POINT ( 'NONE',  ( 0.000000000000000000, 0.000000000000000000, 0.000000000000000000 ) ) ;
#88 = DIRECTION ( 'NONE',  ( -0.000000000000000000, -0.000000000000000000, -1.000000000000000000 ) ) ;
#89 = VECTOR ( 'NONE', #19, 1000.000000000000000 ) ;
#90 = CALENDAR_DATE ( 2021, 26, 2 ) ;
#91 = APPROVAL_STATUS ( 'not_yet_approved' ) ;
#92 = PERSON_AND_ORGANIZATION ( #118, #175 ) ;
#93 = AXIS2_PLACEMENT_3D ( 'NONE', #87, #97, #46 ) ;
#94 = APPROVAL_PERSON_ORGANIZATION ( #106, #8, #103 ) ;
#95 = ORIENTED_EDGE ( 'NONE', *, *, #182, .F. ) ;
#96 = ADVANCED_FACE ( 'NONE', ( #98 ), #168, .F. ) ;
#97 = DIRECTION ( 'NONE',  ( 0.000000000000000000, 0.000000000000000000, 1.000000000000000000 ) ) ;
#98 = FACE_OUTER_BOUND ( 'NONE', #145, .T. ) ;
#99 = CC_DESIGN_SECURITY_CLASSIFICATION ( #124, ( #82 ) ) ;
#100 = CARTESIAN_POINT ( 'NONE',  ( 38.10000000000000142, 4.665904304751416087E-15, 12.69999999999999929 ) ) ;
#101 = DATE_AND_TIME ( #90, #192 ) ;
#102 = EDGE_CURVE ( 'NONE', #55, #198, #73, .T. ) ;
#103 = APPROVAL_ROLE ( '' ) ;
#104 =( NAMED_UNIT ( * ) SI_UNIT ( $, .STERADIAN. ) SOLID_ANGLE_UNIT ( ) );
#105 = DIRECTION ( 'NONE',  ( 0.000000000000000000, 0.000000000000000000, 1.000000000000000000 ) ) ;
#106 = PERSON_AND_ORGANIZATION ( #118, #175 ) ;
#107 = ORIENTED_EDGE ( 'NONE', *, *, #111, .T. ) ;
#108 = ORIENTED_EDGE ( 'NONE', *, *, #146, .F. ) ;
#109 = APPROVAL_DATE_TIME ( #196, #4 ) ;
#110 = CARTESIAN_POINT ( 'NONE',  ( 0.000000000000000000, 0.000000000000000000, 0.000000000000000000 ) ) ;
#111 = EDGE_CURVE ( 'NONE', #198, #141, #123, .T. ) ;
#112 = DATE_AND_TIME ( #151, #21 ) ;
#113 = COORDINATED_UNIVERSAL_TIME_OFFSET ( 2, 0, .AHEAD. ) ;
#114 = DIRECTION ( 'NONE',  ( -0.000000000000000000, -0.000000000000000000, -1.000000000000000000 ) ) ;
#115 = DIRECTION ( 'NONE',  ( 1.000000000000000000, 0.000000000000000000, 0.000000000000000000 ) ) ;
#116 = CARTESIAN_POINT ( 'NONE',  ( 2.081668171172168513E-14, 0.000000000000000000, 12.69999999999998863 ) ) ;
#117 = VECTOR ( 'NONE', #88, 1000.000000000000000 ) ;
#118 = PERSON ( 'UNSPECIFIED', 'UNSPECIFIED', 'UNSPECIFIED', ('UNSPECIFIED'), ('UNSPECIFIED'), ('UNSPECIFIED') ) ;
#119 = DIRECTION ( 'NONE',  ( -1.000000000000000000, 0.000000000000000000, 0.000000000000000000 ) ) ;
#120 = CC_DESIGN_PERSON_AND_ORGANIZATION_ASSIGNMENT ( #78, #81, ( #124 ) ) ;
#121 = DATE_AND_TIME ( #66, #18 ) ;
#122 = CARTESIAN_POINT ( 'NONE',  ( 0.000000000000000000, 0.000000000000000000, 0.000000000000000000 ) ) ;
#123 = CIRCLE ( 'NONE', #71, 199.9999999999999716 ) ;
#124 = SECURITY_CLASSIFICATION ( '', '', #24 ) ;
#125 = MECHANICAL_CONTEXT ( 'NONE', #172, 'mechanical' ) ;
#126 = ORIENTED_EDGE ( 'NONE', *, *, #111, .F. ) ;
#127 = APPLICATION_CONTEXT ( 'configuration controlled 3d designs of mechanical parts and assemblies' ) ;
#128 = DIRECTION ( 'NONE',  ( 0.000000000000000000, 0.000000000000000000, 1.000000000000000000 ) ) ;
#129 = PRODUCT_RELATED_PRODUCT_CATEGORY ( 'detail', '', ( #193 ) ) ;
#130 = PERSON_AND_ORGANIZATION_ROLE ( 'creator' ) ;
#131 = ORIENTED_EDGE ( 'NONE', *, *, #61, .T. ) ;
#132 = AXIS2_PLACEMENT_3D ( 'NONE', #110, #181, #194 ) ;
#133 = COORDINATED_UNIVERSAL_TIME_OFFSET ( 2, 0, .AHEAD. ) ;
#134 = CARTESIAN_POINT ( 'NONE',  ( -38.10000000000000142, 0.000000000000000000, 12.69999999999999929 ) ) ;
#135 = LINE ( 'NONE', #100, #89 ) ;
#136 = FACE_OUTER_BOUND ( 'NONE', #25, .T. ) ;
#137 = DIRECTION ( 'NONE',  ( -0.000000000000000000, -0.000000000000000000, -1.000000000000000000 ) ) ;
#138 = CARTESIAN_POINT ( 'NONE',  ( 2.081668171172168513E-14, 0.000000000000000000, 209.0374391194914097 ) ) ;
#139 = EDGE_CURVE ( 'NONE', #79, #148, #191, .T. ) ;
#140 = AXIS2_PLACEMENT_3D ( 'NONE', #85, #114, #185 ) ;
#141 = VERTEX_POINT ( 'NONE', #200 ) ;
#142 = CC_DESIGN_APPROVAL ( #4, ( #124 ) ) ;
#143 = ORIENTED_EDGE ( 'NONE', *, *, #139, .T. ) ;
#144 = COORDINATED_UNIVERSAL_TIME_OFFSET ( 2, 0, .AHEAD. ) ;
#145 = EDGE_LOOP ( 'NONE', ( #108, #107, #42 ) ) ;
#146 = EDGE_CURVE ( 'NONE', #198, #55, #52, .T. ) ;
#147 =( GEOMETRIC_REPRESENTATION_CONTEXT ( 3 ) GLOBAL_UNCERTAINTY_ASSIGNED_CONTEXT ( ( #163 ) ) GLOBAL_UNIT_ASSIGNED_CONTEXT ( ( #6, #20, #104 ) ) REPRESENTATION_CONTEXT ( 'NONE', 'WORKASPACE' ) );
#148 = VERTEX_POINT ( 'NONE', #84 ) ;
#149 = SHAPE_DEFINITION_REPRESENTATION ( #41, #28 ) ;
#150 = LOCAL_TIME ( 8, 9, 57.00000000000000000, #113 ) ;
#151 = CALENDAR_DATE ( 2021, 26, 2 ) ;
#152 = CARTESIAN_POINT ( 'NONE',  ( 0.000000000000000000, 0.000000000000000000, 0.000000000000000000 ) ) ;
#153 = CC_DESIGN_APPROVAL ( #8, ( #170 ) ) ;
#154 = CARTESIAN_POINT ( 'NONE',  ( 0.000000000000000000, 0.000000000000000000, 12.69999999999999929 ) ) ;
#155 = APPROVAL_DATE_TIME ( #121, #8 ) ;
#156 = PERSON_AND_ORGANIZATION ( #118, #175 ) ;
#157 = AXIS2_PLACEMENT_3D ( 'NONE', #15, #10, #128 ) ;
#158 = PERSON_AND_ORGANIZATION_ROLE ( 'design_supplier' ) ;
#159 = CC_DESIGN_PERSON_AND_ORGANIZATION_ASSIGNMENT ( #92, #158, ( #82 ) ) ;
#160 = ORIENTED_EDGE ( 'NONE', *, *, #166, .T. ) ;
#161 = AXIS2_PLACEMENT_3D ( 'NONE', #138, #189, #183 ) ;
#162 = LOCAL_TIME ( 8, 9, 57.00000000000000000, #177 ) ;
#163 = UNCERTAINTY_MEASURE_WITH_UNIT (LENGTH_MEASURE( 1.000000000000000082E-05 ), #6, 'distance_accuracy_value', 'NONE');
#164 = DIRECTION ( 'NONE',  ( 1.000000000000000000, 1.224646799147353207E-16, 0.000000000000000000 ) ) ;
#165 = APPROVAL_ROLE ( '' ) ;
#166 = EDGE_CURVE ( 'NONE', #198, #148, #169, .T. ) ;
#167 = CYLINDRICAL_SURFACE ( 'NONE', #140, 38.10000000000000142 ) ;
#168 = SPHERICAL_SURFACE ( 'NONE', #161, 199.9999999999999716 ) ;
#169 = LINE ( 'NONE', #134, #117 ) ;
#170 = PRODUCT_DEFINITION ( 'UNKNOWN', '', #82, #17 ) ;
#171 = CARTESIAN_POINT ( 'NONE',  ( -38.09999999999987352, 0.000000000000000000, 12.69999999999998863 ) ) ;
#172 = APPLICATION_CONTEXT ( 'configuration controlled 3d designs of mechanical parts and assemblies' ) ;
#173 = APPROVAL_ROLE ( '' ) ;
#174 = COORDINATED_UNIVERSAL_TIME_OFFSET ( 2, 0, .AHEAD. ) ;
#175 = ORGANIZATION ( 'UNSPECIFIED', 'UNSPECIFIED', '' ) ;
#176 = PERSON_AND_ORGANIZATION ( #118, #175 ) ;
#177 = COORDINATED_UNIVERSAL_TIME_OFFSET ( 2, 0, .AHEAD. ) ;
#178 = ADVANCED_FACE ( 'NONE', ( #136 ), #44, .F. ) ;
#179 = SPHERICAL_SURFACE ( 'NONE', #80, 199.9999999999999716 ) ;
#180 = CIRCLE ( 'NONE', #157, 200.0000000000000000 ) ;
#181 = DIRECTION ( 'NONE',  ( 0.000000000000000000, 0.000000000000000000, 1.000000000000000000 ) ) ;
#182 = EDGE_CURVE ( 'NONE', #55, #79, #135, .T. ) ;
#183 = DIRECTION ( 'NONE',  ( 1.000000000000000000, 0.000000000000000000, 0.000000000000000000 ) ) ;
#184 = AXIS2_PLACEMENT_3D ( 'NONE', #152, #27, #115 ) ;
#185 = DIRECTION ( 'NONE',  ( -1.000000000000000000, 0.000000000000000000, 0.000000000000000000 ) ) ;
#186 = FACE_OUTER_BOUND ( 'NONE', #60, .T. ) ;
#187 = DIRECTION ( 'NONE',  ( 1.000000000000000000, 0.000000000000000000, 0.000000000000000000 ) ) ;
#188 = AXIS2_PLACEMENT_3D ( 'NONE', #45, #137, #2 ) ;
#189 = DIRECTION ( 'NONE',  ( 0.000000000000000000, -1.000000000000000000, -0.000000000000000000 ) ) ;
#190 = CLOSED_SHELL ( 'NONE', ( #96, #77, #199, #178, #26 ) ) ;
#191 = CIRCLE ( 'NONE', #184, 38.10000000000000142 ) ;
#192 = LOCAL_TIME ( 8, 9, 57.00000000000000000, #144 ) ;
#193 = PRODUCT ( '010-0705E_N-BK7_PCV_window', '010-0705E_N-BK7_PCV_window', '', ( #125 ) ) ;
#194 = DIRECTION ( 'NONE',  ( 1.000000000000000000, 0.000000000000000000, 0.000000000000000000 ) ) ;
#195 = DIRECTION ( 'NONE',  ( 1.000000000000000000, 0.000000000000000000, 0.000000000000000000 ) ) ;
#196 = DATE_AND_TIME ( #70, #150 ) ;
#197 = ORIENTED_EDGE ( 'NONE', *, *, #182, .T. ) ;
#198 = VERTEX_POINT ( 'NONE', #171 ) ;
#199 = ADVANCED_FACE ( 'NONE', ( #186 ), #29, .T. ) ;
#200 = CARTESIAN_POINT ( 'NONE',  ( 3.306314970319521257E-14, 0.000000000000000000, 9.037439119491425643 ) ) ;
#201 = CARTESIAN_POINT ( 'NONE',  ( 2.081668171172168513E-14, 0.000000000000000000, 209.0374391194914097 ) ) ;
ENDSEC;
END-ISO-10303-21;
