ISO-10303-21;
HEADER;
FILE_DESCRIPTION (( 'STEP AP203' ),
    '1' );
FILE_NAME ('010-0550E_N-BK7_PCV_window.STEP',
    '2021-02-25T13:25:47',
    ( '' ),
    ( '' ),
    'SwSTEP 2.0',
    'SolidWorks 2019',
    '' );
FILE_SCHEMA (( 'CONFIG_CONTROL_DESIGN' ));
ENDSEC;

DATA;
#1 = CARTESIAN_POINT ( 'NONE',  ( 0.000000000000000000, 0.000000000000000000, 0.000000000000000000 ) ) ;
#2 = AXIS2_PLACEMENT_3D ( 'NONE', #1, #64, #126 ) ;
#3 = CC_DESIGN_DATE_AND_TIME_ASSIGNMENT ( #12, #24, ( #18 ) ) ;
#4 = ORIENTED_EDGE ( 'NONE', *, *, #99, .T. ) ;
#5 = ORIENTED_EDGE ( 'NONE', *, *, #198, .T. ) ;
#6 = ORIENTED_EDGE ( 'NONE', *, *, #21, .F. ) ;
#7 = AXIS2_PLACEMENT_3D ( 'NONE', #58, #118, #181 ) ;
#8 = PERSON_AND_ORGANIZATION ( #41, #123 ) ;
#9 = DIRECTION ( 'NONE',  ( 1.000000000000000000, 0.000000000000000000, 0.000000000000000000 ) ) ;
#10 = DIRECTION ( 'NONE',  ( 0.000000000000000000, 0.000000000000000000, 1.000000000000000000 ) ) ;
#11 = CARTESIAN_POINT ( 'NONE',  ( 1.840507620565255769E-12, 0.000000000000000000, 9.967741947971120453 ) ) ;
#12 = DATE_AND_TIME ( #150, #124 ) ;
#13 = ADVANCED_FACE ( 'NONE', ( #51 ), #54, .F. ) ;
#14 = DIRECTION ( 'NONE',  ( 1.000000000000000000, 0.000000000000000000, 0.000000000000000000 ) ) ;
#15 = CIRCLE ( 'NONE', #132, 25.39999999981489509 ) ;
#16 = APPLICATION_PROTOCOL_DEFINITION ( 'international standard', 'config_control_design', 1994, #107 ) ;
#17 =( LENGTH_UNIT ( ) NAMED_UNIT ( * ) SI_UNIT ( .MILLI., .METRE. ) );
#18 = SECURITY_CLASSIFICATION ( '', '', #119 ) ;
#19 = CYLINDRICAL_SURFACE ( 'NONE', #190, 25.39999999999999858 ) ;
#20 = AXIS2_PLACEMENT_3D ( 'NONE', #74, #195, #9 ) ;
#21 = EDGE_CURVE ( 'NONE', #36, #100, #176, .T. ) ;
#22 = EDGE_LOOP ( 'NONE', ( #96, #86, #98 ) ) ;
#23 = CIRCLE ( 'NONE', #7, 10000.00000000000000 ) ;
#24 = DATE_TIME_ROLE ( 'classification_date' ) ;
#25 = VERTEX_POINT ( 'NONE', #84 ) ;
#26 = PERSON_AND_ORGANIZATION ( #41, #123 ) ;
#27 = PERSON_AND_ORGANIZATION_ROLE ( 'design_owner' ) ;
#28 = ADVANCED_FACE ( 'NONE', ( #38 ), #19, .T. ) ;
#29 = APPROVAL_ROLE ( '' ) ;
#30 = PLANE ( 'NONE',  #82 ) ;
#31 = PERSON_AND_ORGANIZATION ( #41, #123 ) ;
#32 = DIRECTION ( 'NONE',  ( 0.000000000000000000, 0.000000000000000000, 1.000000000000000000 ) ) ;
#33 = ORIENTED_EDGE ( 'NONE', *, *, #68, .T. ) ;
#34 = EDGE_CURVE ( 'NONE', #100, #67, #53, .T. ) ;
#35 = EDGE_LOOP ( 'NONE', ( #147, #161 ) ) ;
#36 = VERTEX_POINT ( 'NONE', #185 ) ;
#37 = AXIS2_PLACEMENT_3D ( 'NONE', #57, #168, #103 ) ;
#38 = FACE_OUTER_BOUND ( 'NONE', #145, .T. ) ;
#39 =( NAMED_UNIT ( * ) PLANE_ANGLE_UNIT ( ) SI_UNIT ( $, .RADIAN. ) );
#40 = APPROVAL_STATUS ( 'not_yet_approved' ) ;
#41 = PERSON ( 'UNSPECIFIED', 'UNSPECIFIED', 'UNSPECIFIED', ('UNSPECIFIED'), ('UNSPECIFIED'), ('UNSPECIFIED') ) ;
#42 = DIRECTION ( 'NONE',  ( 0.000000000000000000, -1.000000000000000000, -0.000000000000000000 ) ) ;
#43 = CC_DESIGN_DATE_AND_TIME_ASSIGNMENT ( #109, #133, ( #188 ) ) ;
#44 = PERSON_AND_ORGANIZATION ( #41, #123 ) ;
#45 = APPROVAL_DATE_TIME ( #149, #174 ) ;
#46 = CARTESIAN_POINT ( 'NONE',  ( 1.228184220991579423E-12, 0.000000000000000000, 10009.96774194797035 ) ) ;
#47 = CC_DESIGN_APPROVAL ( #63, ( #18 ) ) ;
#48 = ADVANCED_FACE ( 'NONE', ( #158 ), #112, .T. ) ;
#49 = ADVANCED_BREP_SHAPE_REPRESENTATION ( '010-0550E_N-BK7_PCV_window', ( #129, #186 ), #182 ) ;
#50 = APPROVAL_PERSON_ORGANIZATION ( #31, #108, #29 ) ;
#51 = FACE_OUTER_BOUND ( 'NONE', #191, .T. ) ;
#52 = PERSON_AND_ORGANIZATION ( #41, #123 ) ;
#53 = CIRCLE ( 'NONE', #2, 25.39999999999999858 ) ;
#54 = SPHERICAL_SURFACE ( 'NONE', #169, 10000.00000000000000 ) ;
#55 = CALENDAR_DATE ( 2021, 25, 2 ) ;
#56 = DIRECTION ( 'NONE',  ( -0.000000000000000000, -0.000000000000000000, -1.000000000000000000 ) ) ;
#57 = CARTESIAN_POINT ( 'NONE',  ( 1.228184220991579423E-12, 0.000000000000000000, 10009.96774194797035 ) ) ;
#58 = CARTESIAN_POINT ( 'NONE',  ( 1.228184220991579423E-12, 0.000000000000000000, 10009.96774194797035 ) ) ;
#59 = DIRECTION ( 'NONE',  ( 1.000000000000000000, 0.000000000000000000, 0.000000000000000000 ) ) ;
#60 = SPHERICAL_SURFACE ( 'NONE', #62, 10000.00000000000000 ) ;
#61 = PERSON_AND_ORGANIZATION_ROLE ( 'creator' ) ;
#62 = AXIS2_PLACEMENT_3D ( 'NONE', #46, #42, #193 ) ;
#63 = APPROVAL ( #192, 'UNSPECIFIED' ) ;
#64 = DIRECTION ( 'NONE',  ( 0.000000000000000000, 0.000000000000000000, 1.000000000000000000 ) ) ;
#65 = PRODUCT ( '010-0550E_N-BK7_PCV_window', '010-0550E_N-BK7_PCV_window', '', ( #89 ) ) ;
#66 = COORDINATED_UNIVERSAL_TIME_OFFSET ( 2, 0, .AHEAD. ) ;
#67 = VERTEX_POINT ( 'NONE', #151 ) ;
#68 = EDGE_CURVE ( 'NONE', #67, #100, #115, .T. ) ;
#69 = ORIENTED_EDGE ( 'NONE', *, *, #136, .T. ) ;
#70 = CLOSED_SHELL ( 'NONE', ( #160, #48, #28, #142, #13 ) ) ;
#71 = DATE_AND_TIME ( #55, #110 ) ;
#72 = CARTESIAN_POINT ( 'NONE',  ( 1.228184220991579423E-12, 0.000000000000000000, 9.999999999999786837 ) ) ;
#73 = CARTESIAN_POINT ( 'NONE',  ( 0.000000000000000000, 0.000000000000000000, 0.000000000000000000 ) ) ;
#74 = CARTESIAN_POINT ( 'NONE',  ( 1.228184220991579423E-12, 0.000000000000000000, 9.999999999999786837 ) ) ;
#75 = COORDINATED_UNIVERSAL_TIME_OFFSET ( 2, 0, .AHEAD. ) ;
#76 = AXIS2_PLACEMENT_3D ( 'NONE', #90, #32, #77 ) ;
#77 = DIRECTION ( 'NONE',  ( 1.000000000000000000, 0.000000000000000000, 0.000000000000000000 ) ) ;
#78 = LOCAL_TIME ( 15, 25, 47.00000000000000000, #75 ) ;
#79 = EDGE_CURVE ( 'NONE', #36, #131, #23, .T. ) ;
#80 = DIRECTION ( 'NONE',  ( -0.000000000000000000, -0.000000000000000000, -1.000000000000000000 ) ) ;
#81 = CARTESIAN_POINT ( 'NONE',  ( 0.000000000000000000, 0.000000000000000000, 10.00000000000000000 ) ) ;
#82 = AXIS2_PLACEMENT_3D ( 'NONE', #139, #120, #155 ) ;
#83 = PRODUCT_RELATED_PRODUCT_CATEGORY ( 'detail', '', ( #65 ) ) ;
#84 = CARTESIAN_POINT ( 'NONE',  ( 25.39999999981612078, 3.110602869823018242E-15, 9.999999999999786837 ) ) ;
#85 = SHAPE_DEFINITION_REPRESENTATION ( #144, #49 ) ;
#86 = ORIENTED_EDGE ( 'NONE', *, *, #79, .T. ) ;
#87 = LOCAL_TIME ( 15, 25, 47.00000000000000000, #88 ) ;
#88 = COORDINATED_UNIVERSAL_TIME_OFFSET ( 2, 0, .AHEAD. ) ;
#89 = MECHANICAL_CONTEXT ( 'NONE', #107, 'mechanical' ) ;
#90 = CARTESIAN_POINT ( 'NONE',  ( 0.000000000000000000, 0.000000000000000000, 0.000000000000000000 ) ) ;
#91 = COORDINATED_UNIVERSAL_TIME_OFFSET ( 2, 0, .AHEAD. ) ;
#92 = DIRECTION ( 'NONE',  ( -1.000000000000000000, 0.000000000000000000, 0.000000000000000000 ) ) ;
#93 = COORDINATED_UNIVERSAL_TIME_OFFSET ( 2, 0, .AHEAD. ) ;
#94 = CC_DESIGN_PERSON_AND_ORGANIZATION_ASSIGNMENT ( #44, #106, ( #18 ) ) ;
#95 = DIRECTION ( 'NONE',  ( -0.000000000000000000, -0.000000000000000000, -1.000000000000000000 ) ) ;
#96 = ORIENTED_EDGE ( 'NONE', *, *, #136, .F. ) ;
#97 = AXIS2_PLACEMENT_3D ( 'NONE', #81, #56, #92 ) ;
#98 = ORIENTED_EDGE ( 'NONE', *, *, #170, .F. ) ;
#99 = EDGE_CURVE ( 'NONE', #25, #36, #163, .T. ) ;
#100 = VERTEX_POINT ( 'NONE', #137 ) ;
#101 = EDGE_LOOP ( 'NONE', ( #69, #5, #33, #6 ) ) ;
#102 = ORIENTED_EDGE ( 'NONE', *, *, #198, .F. ) ;
#103 = DIRECTION ( 'NONE',  ( 0.000000000000000000, 0.000000000000000000, 1.000000000000000000 ) ) ;
#104 = CC_DESIGN_APPROVAL ( #108, ( #141 ) ) ;
#105 = CALENDAR_DATE ( 2021, 25, 2 ) ;
#106 = PERSON_AND_ORGANIZATION_ROLE ( 'classification_officer' ) ;
#107 = APPLICATION_CONTEXT ( 'configuration controlled 3d designs of mechanical parts and assemblies' ) ;
#108 = APPROVAL ( #40, 'UNSPECIFIED' ) ;
#109 = DATE_AND_TIME ( #105, #196 ) ;
#110 = LOCAL_TIME ( 15, 25, 47.00000000000000000, #66 ) ;
#111 = ORIENTED_EDGE ( 'NONE', *, *, #99, .F. ) ;
#112 = CYLINDRICAL_SURFACE ( 'NONE', #97, 25.39999999999999858 ) ;
#113 = APPLICATION_CONTEXT ( 'configuration controlled 3d designs of mechanical parts and assemblies' ) ;
#114 = CARTESIAN_POINT ( 'NONE',  ( -25.39999999999999858, 0.000000000000000000, 10.00000000000000000 ) ) ;
#115 = CIRCLE ( 'NONE', #76, 25.39999999999999858 ) ;
#116 = CARTESIAN_POINT ( 'NONE',  ( 1.228184220991579423E-12, 0.000000000000000000, 10009.96774194797035 ) ) ;
#117 = PERSON_AND_ORGANIZATION_ROLE ( 'creator' ) ;
#118 = DIRECTION ( 'NONE',  ( 1.224646799147353207E-16, -1.000000000000000000, 0.000000000000000000 ) ) ;
#119 = SECURITY_CLASSIFICATION_LEVEL ( 'unclassified' ) ;
#120 = DIRECTION ( 'NONE',  ( 0.000000000000000000, 0.000000000000000000, 1.000000000000000000 ) ) ;
#121 = CC_DESIGN_PERSON_AND_ORGANIZATION_ASSIGNMENT ( #154, #61, ( #141 ) ) ;
#122 = CALENDAR_DATE ( 2021, 25, 2 ) ;
#123 = ORGANIZATION ( 'UNSPECIFIED', 'UNSPECIFIED', '' ) ;
#124 = LOCAL_TIME ( 15, 25, 47.00000000000000000, #91 ) ;
#125 = CC_DESIGN_PERSON_AND_ORGANIZATION_ASSIGNMENT ( #8, #194, ( #141 ) ) ;
#126 = DIRECTION ( 'NONE',  ( 1.000000000000000000, 0.000000000000000000, 0.000000000000000000 ) ) ;
#127 = APPROVAL_ROLE ( '' ) ;
#128 = ORIENTED_EDGE ( 'NONE', *, *, #79, .F. ) ;
#129 = MANIFOLD_SOLID_BREP ( 'Cut-Revolve1', #70 ) ;
#130 = DIRECTION ( 'NONE',  ( 0.000000000000000000, -1.000000000000000000, -0.000000000000000000 ) ) ;
#131 = VERTEX_POINT ( 'NONE', #11 ) ;
#132 = AXIS2_PLACEMENT_3D ( 'NONE', #72, #95, #14 ) ;
#133 = DATE_TIME_ROLE ( 'creation_date' ) ;
#134 = FACE_OUTER_BOUND ( 'NONE', #35, .T. ) ;
#135 = APPROVAL_ROLE ( '' ) ;
#136 = EDGE_CURVE ( 'NONE', #36, #25, #15, .T. ) ;
#137 = CARTESIAN_POINT ( 'NONE',  ( -25.39999999999999858, 0.000000000000000000, 0.000000000000000000 ) ) ;
#138 = CIRCLE ( 'NONE', #37, 10000.00000000000000 ) ;
#139 = CARTESIAN_POINT ( 'NONE',  ( 0.000000000000000000, 0.000000000000000000, 0.000000000000000000 ) ) ;
#140 = APPLICATION_PROTOCOL_DEFINITION ( 'international standard', 'config_control_design', 1994, #113 ) ;
#141 = PRODUCT_DEFINITION_FORMATION_WITH_SPECIFIED_SOURCE ( 'ANY', '', #65, .NOT_KNOWN. ) ;
#142 = ADVANCED_FACE ( 'NONE', ( #134 ), #30, .F. ) ;
#143 = DIRECTION ( 'NONE',  ( -1.000000000000000000, 0.000000000000000000, 0.000000000000000000 ) ) ;
#144 = PRODUCT_DEFINITION_SHAPE ( 'NONE', 'NONE',  #188 ) ;
#145 = EDGE_LOOP ( 'NONE', ( #102, #4, #146, #172 ) ) ;
#146 = ORIENTED_EDGE ( 'NONE', *, *, #21, .T. ) ;
#147 = ORIENTED_EDGE ( 'NONE', *, *, #34, .F. ) ;
#148 = VECTOR ( 'NONE', #157, 1000.000000000000000 ) ;
#149 = DATE_AND_TIME ( #122, #87 ) ;
#150 = CALENDAR_DATE ( 2021, 25, 2 ) ;
#151 = CARTESIAN_POINT ( 'NONE',  ( 25.39999999999999858, 3.110602869834276865E-15, 0.000000000000000000 ) ) ;
#152 = APPROVAL_PERSON_ORGANIZATION ( #52, #63, #127 ) ;
#153 = DESIGN_CONTEXT ( 'detailed design', #113, 'design' ) ;
#154 = PERSON_AND_ORGANIZATION ( #41, #123 ) ;
#155 = DIRECTION ( 'NONE',  ( 1.000000000000000000, 0.000000000000000000, -0.000000000000000000 ) ) ;
#156 = CC_DESIGN_PERSON_AND_ORGANIZATION_ASSIGNMENT ( #26, #27, ( #65 ) ) ;
#157 = DIRECTION ( 'NONE',  ( -0.000000000000000000, -0.000000000000000000, -1.000000000000000000 ) ) ;
#158 = FACE_OUTER_BOUND ( 'NONE', #101, .T. ) ;
#159 = CC_DESIGN_SECURITY_CLASSIFICATION ( #18, ( #141 ) ) ;
#160 = ADVANCED_FACE ( 'NONE', ( #177 ), #60, .F. ) ;
#161 = ORIENTED_EDGE ( 'NONE', *, *, #68, .F. ) ;
#162 = LINE ( 'NONE', #179, #184 ) ;
#163 = CIRCLE ( 'NONE', #20, 25.39999999981489509 ) ;
#164 = CALENDAR_DATE ( 2021, 25, 2 ) ;
#165 =( NAMED_UNIT ( * ) SI_UNIT ( $, .STERADIAN. ) SOLID_ANGLE_UNIT ( ) );
#166 = PERSON_AND_ORGANIZATION ( #41, #123 ) ;
#167 = APPROVAL_STATUS ( 'not_yet_approved' ) ;
#168 = DIRECTION ( 'NONE',  ( 0.000000000000000000, 1.000000000000000000, -0.000000000000000000 ) ) ;
#169 = AXIS2_PLACEMENT_3D ( 'NONE', #116, #130, #189 ) ;
#170 = EDGE_CURVE ( 'NONE', #25, #131, #138, .T. ) ;
#171 = ORIENTED_EDGE ( 'NONE', *, *, #170, .T. ) ;
#172 = ORIENTED_EDGE ( 'NONE', *, *, #34, .T. ) ;
#173 = APPROVAL_PERSON_ORGANIZATION ( #178, #174, #135 ) ;
#174 = APPROVAL ( #167, 'UNSPECIFIED' ) ;
#175 = CARTESIAN_POINT ( 'NONE',  ( 0.000000000000000000, 0.000000000000000000, 10.00000000000000000 ) ) ;
#176 = LINE ( 'NONE', #114, #148 ) ;
#177 = FACE_OUTER_BOUND ( 'NONE', #22, .T. ) ;
#178 = PERSON_AND_ORGANIZATION ( #41, #123 ) ;
#179 = CARTESIAN_POINT ( 'NONE',  ( 25.39999999999999858, 3.110602869834276865E-15, 10.00000000000000000 ) ) ;
#180 = DATE_AND_TIME ( #164, #78 ) ;
#181 = DIRECTION ( 'NONE',  ( 1.000000000000000000, 1.224646799147353207E-16, 0.000000000000000000 ) ) ;
#182 =( GEOMETRIC_REPRESENTATION_CONTEXT ( 3 ) GLOBAL_UNCERTAINTY_ASSIGNED_CONTEXT ( ( #199 ) ) GLOBAL_UNIT_ASSIGNED_CONTEXT ( ( #17, #39, #165 ) ) REPRESENTATION_CONTEXT ( 'NONE', 'WORKASPACE' ) );
#183 = CC_DESIGN_PERSON_AND_ORGANIZATION_ASSIGNMENT ( #166, #117, ( #188 ) ) ;
#184 = VECTOR ( 'NONE', #197, 1000.000000000000000 ) ;
#185 = CARTESIAN_POINT ( 'NONE',  ( -25.39999999981366585, 0.000000000000000000, 9.999999999999786837 ) ) ;
#186 = AXIS2_PLACEMENT_3D ( 'NONE', #73, #10, #59 ) ;
#187 = APPROVAL_DATE_TIME ( #71, #63 ) ;
#188 = PRODUCT_DEFINITION ( 'UNKNOWN', '', #141, #153 ) ;
#189 = DIRECTION ( 'NONE',  ( 1.000000000000000000, 0.000000000000000000, 0.000000000000000000 ) ) ;
#190 = AXIS2_PLACEMENT_3D ( 'NONE', #175, #80, #143 ) ;
#191 = EDGE_LOOP ( 'NONE', ( #128, #111, #171 ) ) ;
#192 = APPROVAL_STATUS ( 'not_yet_approved' ) ;
#193 = DIRECTION ( 'NONE',  ( 1.000000000000000000, 0.000000000000000000, 0.000000000000000000 ) ) ;
#194 = PERSON_AND_ORGANIZATION_ROLE ( 'design_supplier' ) ;
#195 = DIRECTION ( 'NONE',  ( -0.000000000000000000, -0.000000000000000000, -1.000000000000000000 ) ) ;
#196 = LOCAL_TIME ( 15, 25, 47.00000000000000000, #93 ) ;
#197 = DIRECTION ( 'NONE',  ( -0.000000000000000000, -0.000000000000000000, -1.000000000000000000 ) ) ;
#198 = EDGE_CURVE ( 'NONE', #25, #67, #162, .T. ) ;
#199 = UNCERTAINTY_MEASURE_WITH_UNIT (LENGTH_MEASURE( 1.000000000000000082E-05 ), #17, 'distance_accuracy_value', 'NONE');
#200 = APPROVAL_DATE_TIME ( #180, #108 ) ;
#201 = CC_DESIGN_APPROVAL ( #174, ( #188 ) ) ;
ENDSEC;
END-ISO-10303-21;
