ISO-10303-21;
HEADER;
FILE_DESCRIPTION (( 'STEP AP203' ),
    '1' );
FILE_NAME ('010-0540E_N-BK7_PCV_window.STEP',
    '2021-02-25T13:25:19',
    ( '' ),
    ( '' ),
    'SwSTEP 2.0',
    'SolidWorks 2019',
    '' );
FILE_SCHEMA (( 'CONFIG_CONTROL_DESIGN' ));
ENDSEC;

DATA;
#1 = VERTEX_POINT ( 'NONE', #5 ) ;
#2 = DIRECTION ( 'NONE',  ( 0.000000000000000000, 0.000000000000000000, 1.000000000000000000 ) ) ;
#3 = COORDINATED_UNIVERSAL_TIME_OFFSET ( 2, 0, .AHEAD. ) ;
#4 =( NAMED_UNIT ( * ) SI_UNIT ( $, .STERADIAN. ) SOLID_ANGLE_UNIT ( ) );
#5 = CARTESIAN_POINT ( 'NONE',  ( 25.39999999967600530, 3.110602869814438197E-15, 9.999999999999786837 ) ) ;
#6 = ORIENTED_EDGE ( 'NONE', *, *, #165, .T. ) ;
#7 = EDGE_LOOP ( 'NONE', ( #130, #166 ) ) ;
#8 = CALENDAR_DATE ( 2021, 25, 2 ) ;
#9 = AXIS2_PLACEMENT_3D ( 'NONE', #82, #104, #71 ) ;
#10 = PRODUCT_RELATED_PRODUCT_CATEGORY ( 'detail', '', ( #83 ) ) ;
#11 = APPROVAL_STATUS ( 'not_yet_approved' ) ;
#12 = ORIENTED_EDGE ( 'NONE', *, *, #194, .T. ) ;
#13 = EDGE_CURVE ( 'NONE', #1, #48, #128, .T. ) ;
#14 = ORIENTED_EDGE ( 'NONE', *, *, #157, .F. ) ;
#15 = DIRECTION ( 'NONE',  ( -0.000000000000000000, -0.000000000000000000, -1.000000000000000000 ) ) ;
#16 = LOCAL_TIME ( 15, 25, 19.00000000000000000, #162 ) ;
#17 = DIRECTION ( 'NONE',  ( -0.000000000000000000, -0.000000000000000000, -1.000000000000000000 ) ) ;
#18 = DIRECTION ( 'NONE',  ( 0.000000000000000000, 1.000000000000000000, -0.000000000000000000 ) ) ;
#19 = FACE_OUTER_BOUND ( 'NONE', #72, .T. ) ;
#20 = DIRECTION ( 'NONE',  ( 1.000000000000000000, 0.000000000000000000, 0.000000000000000000 ) ) ;
#21 = LINE ( 'NONE', #116, #169 ) ;
#22 = CC_DESIGN_DATE_AND_TIME_ASSIGNMENT ( #179, #126, ( #170 ) ) ;
#23 = CIRCLE ( 'NONE', #142, 8000.000000000000000 ) ;
#24 = LOCAL_TIME ( 15, 25, 19.00000000000000000, #3 ) ;
#25 = APPROVAL ( #11, 'UNSPECIFIED' ) ;
#26 = DATE_AND_TIME ( #176, #106 ) ;
#27 = PERSON_AND_ORGANIZATION ( #88, #46 ) ;
#28 = VERTEX_POINT ( 'NONE', #31 ) ;
#29 = CC_DESIGN_APPROVAL ( #25, ( #170 ) ) ;
#30 = EDGE_LOOP ( 'NONE', ( #143, #70, #14 ) ) ;
#31 = CARTESIAN_POINT ( 'NONE',  ( 25.39999999999999858, 3.110602869834276865E-15, 0.000000000000000000 ) ) ;
#32 = CIRCLE ( 'NONE', #148, 25.39999999967502120 ) ;
#33 = DIRECTION ( 'NONE',  ( 0.000000000000000000, 0.000000000000000000, 1.000000000000000000 ) ) ;
#34 = DIRECTION ( 'NONE',  ( 1.224646799147353207E-16, -1.000000000000000000, 0.000000000000000000 ) ) ;
#35 = SPHERICAL_SURFACE ( 'NONE', #187, 8000.000000000000000 ) ;
#36 = PERSON_AND_ORGANIZATION ( #88, #46 ) ;
#37 = DIRECTION ( 'NONE',  ( -0.000000000000000000, -0.000000000000000000, -1.000000000000000000 ) ) ;
#38 = CC_DESIGN_DATE_AND_TIME_ASSIGNMENT ( #127, #40, ( #152 ) ) ;
#39 = DIRECTION ( 'NONE',  ( 1.000000000000000000, 1.224646799147353207E-16, 0.000000000000000000 ) ) ;
#40 = DATE_TIME_ROLE ( 'creation_date' ) ;
#41 = APPROVAL_ROLE ( '' ) ;
#42 = APPROVAL_DATE_TIME ( #26, #84 ) ;
#43 = SHAPE_DEFINITION_REPRESENTATION ( #135, #172 ) ;
#44 = PERSON_AND_ORGANIZATION ( #88, #46 ) ;
#45 = VECTOR ( 'NONE', #17, 1000.000000000000000 ) ;
#46 = ORGANIZATION ( 'UNSPECIFIED', 'UNSPECIFIED', '' ) ;
#47 = APPLICATION_CONTEXT ( 'configuration controlled 3d designs of mechanical parts and assemblies' ) ;
#48 = VERTEX_POINT ( 'NONE', #81 ) ;
#49 = FACE_OUTER_BOUND ( 'NONE', #131, .T. ) ;
#50 = CARTESIAN_POINT ( 'NONE',  ( 9.818534874028728154E-13, 0.000000000000000000, 8009.959677398381245 ) ) ;
#51 = ADVANCED_FACE ( 'NONE', ( #134 ), #89, .F. ) ;
#52 = CLOSED_SHELL ( 'NONE', ( #51, #184, #77, #129, #57 ) ) ;
#53 = MECHANICAL_CONTEXT ( 'NONE', #47, 'mechanical' ) ;
#54 = FACE_OUTER_BOUND ( 'NONE', #189, .T. ) ;
#55 = PERSON_AND_ORGANIZATION_ROLE ( 'design_owner' ) ;
#56 = DIRECTION ( 'NONE',  ( -1.000000000000000000, 0.000000000000000000, 0.000000000000000000 ) ) ;
#57 = ADVANCED_FACE ( 'NONE', ( #54 ), #35, .F. ) ;
#58 = APPROVAL_STATUS ( 'not_yet_approved' ) ;
#59 = PERSON_AND_ORGANIZATION_ROLE ( 'design_supplier' ) ;
#60 = PERSON_AND_ORGANIZATION ( #88, #46 ) ;
#61 = PERSON_AND_ORGANIZATION_ROLE ( 'creator' ) ;
#62 = DATE_AND_TIME ( #66, #24 ) ;
#63 = CC_DESIGN_PERSON_AND_ORGANIZATION_ASSIGNMENT ( #195, #149, ( #170 ) ) ;
#64 = PRODUCT_DEFINITION_FORMATION_WITH_SPECIFIED_SOURCE ( 'ANY', '', #83, .NOT_KNOWN. ) ;
#65 = CC_DESIGN_PERSON_AND_ORGANIZATION_ASSIGNMENT ( #44, #59, ( #64 ) ) ;
#66 = CALENDAR_DATE ( 2021, 25, 2 ) ;
#67 = CARTESIAN_POINT ( 'NONE',  ( 0.000000000000000000, 0.000000000000000000, 0.000000000000000000 ) ) ;
#68 = CARTESIAN_POINT ( 'NONE',  ( 9.818534874028728154E-13, 0.000000000000000000, 9.999999999999786837 ) ) ;
#69 =( NAMED_UNIT ( * ) PLANE_ANGLE_UNIT ( ) SI_UNIT ( $, .RADIAN. ) );
#70 = ORIENTED_EDGE ( 'NONE', *, *, #197, .T. ) ;
#71 = DIRECTION ( 'NONE',  ( -1.000000000000000000, 0.000000000000000000, 0.000000000000000000 ) ) ;
#72 = EDGE_LOOP ( 'NONE', ( #112, #159, #86, #182 ) ) ;
#73 = AXIS2_PLACEMENT_3D ( 'NONE', #132, #120, #122 ) ;
#74 = CC_DESIGN_APPROVAL ( #84, ( #64 ) ) ;
#75 = APPLICATION_CONTEXT ( 'configuration controlled 3d designs of mechanical parts and assemblies' ) ;
#76 = APPROVAL_ROLE ( '' ) ;
#77 = ADVANCED_FACE ( 'NONE', ( #19 ), #153, .T. ) ;
#78 = DESIGN_CONTEXT ( 'detailed design', #75, 'design' ) ;
#79 = AXIS2_PLACEMENT_3D ( 'NONE', #191, #15, #56 ) ;
#80 = ORIENTED_EDGE ( 'NONE', *, *, #178, .T. ) ;
#81 = CARTESIAN_POINT ( 'NONE',  ( -25.39999999967404065, 0.000000000000000000, 9.999999999999786837 ) ) ;
#82 = CARTESIAN_POINT ( 'NONE',  ( 0.000000000000000000, 0.000000000000000000, 10.00000000000000000 ) ) ;
#83 = PRODUCT ( '010-0540E_N-BK7_PCV_window', '010-0540E_N-BK7_PCV_window', '', ( #53 ) ) ;
#84 = APPROVAL ( #151, 'UNSPECIFIED' ) ;
#85 = PLANE ( 'NONE',  #180 ) ;
#86 = ORIENTED_EDGE ( 'NONE', *, *, #92, .T. ) ;
#87 = DIRECTION ( 'NONE',  ( -0.000000000000000000, -0.000000000000000000, -1.000000000000000000 ) ) ;
#88 = PERSON ( 'UNSPECIFIED', 'UNSPECIFIED', 'UNSPECIFIED', ('UNSPECIFIED'), ('UNSPECIFIED'), ('UNSPECIFIED') ) ;
#89 = SPHERICAL_SURFACE ( 'NONE', #109, 8000.000000000000000 ) ;
#90 = CARTESIAN_POINT ( 'NONE',  ( 9.818534874028728154E-13, 0.000000000000000000, 9.999999999999786837 ) ) ;
#91 = CIRCLE ( 'NONE', #105, 8000.000000000000000 ) ;
#92 = EDGE_CURVE ( 'NONE', #48, #198, #121, .T. ) ;
#93 = APPROVAL_PERSON_ORGANIZATION ( #107, #25, #41 ) ;
#94 = COORDINATED_UNIVERSAL_TIME_OFFSET ( 2, 0, .AHEAD. ) ;
#95 = DIRECTION ( 'NONE',  ( 0.000000000000000000, -1.000000000000000000, -0.000000000000000000 ) ) ;
#96 = CC_DESIGN_PERSON_AND_ORGANIZATION_ASSIGNMENT ( #164, #108, ( #64 ) ) ;
#97 = DIRECTION ( 'NONE',  ( 1.000000000000000000, 0.000000000000000000, 0.000000000000000000 ) ) ;
#98 = CIRCLE ( 'NONE', #118, 25.39999999999999858 ) ;
#99 = CC_DESIGN_APPROVAL ( #168, ( #152 ) ) ;
#100 = CARTESIAN_POINT ( 'NONE',  ( -25.39999999999999858, 0.000000000000000000, 10.00000000000000000 ) ) ;
#101 = DIRECTION ( 'NONE',  ( 1.000000000000000000, 0.000000000000000000, 0.000000000000000000 ) ) ;
#102 = APPLICATION_PROTOCOL_DEFINITION ( 'international standard', 'config_control_design', 1994, #75 ) ;
#103 = DIRECTION ( 'NONE',  ( 1.000000000000000000, 0.000000000000000000, 0.000000000000000000 ) ) ;
#104 = DIRECTION ( 'NONE',  ( -0.000000000000000000, -0.000000000000000000, -1.000000000000000000 ) ) ;
#105 = AXIS2_PLACEMENT_3D ( 'NONE', #50, #34, #39 ) ;
#106 = LOCAL_TIME ( 15, 25, 19.00000000000000000, #196 ) ;
#107 = PERSON_AND_ORGANIZATION ( #88, #46 ) ;
#108 = PERSON_AND_ORGANIZATION_ROLE ( 'creator' ) ;
#109 = AXIS2_PLACEMENT_3D ( 'NONE', #156, #95, #174 ) ;
#110 = AXIS2_PLACEMENT_3D ( 'NONE', #67, #33, #137 ) ;
#111 = UNCERTAINTY_MEASURE_WITH_UNIT (LENGTH_MEASURE( 1.000000000000000082E-05 ), #160, 'distance_accuracy_value', 'NONE');
#112 = ORIENTED_EDGE ( 'NONE', *, *, #178, .F. ) ;
#113 = LOCAL_TIME ( 15, 25, 19.00000000000000000, #123 ) ;
#114 = ORIENTED_EDGE ( 'NONE', *, *, #92, .F. ) ;
#115 = CC_DESIGN_PERSON_AND_ORGANIZATION_ASSIGNMENT ( #60, #61, ( #152 ) ) ;
#116 = CARTESIAN_POINT ( 'NONE',  ( 25.39999999999999858, 3.110602869834276865E-15, 10.00000000000000000 ) ) ;
#117 = CARTESIAN_POINT ( 'NONE',  ( 0.000000000000000000, 0.000000000000000000, 0.000000000000000000 ) ) ;
#118 = AXIS2_PLACEMENT_3D ( 'NONE', #175, #171, #20 ) ;
#119 = CC_DESIGN_SECURITY_CLASSIFICATION ( #170, ( #64 ) ) ;
#120 = DIRECTION ( 'NONE',  ( 0.000000000000000000, 0.000000000000000000, 1.000000000000000000 ) ) ;
#121 = LINE ( 'NONE', #100, #45 ) ;
#122 = DIRECTION ( 'NONE',  ( 1.000000000000000000, 0.000000000000000000, 0.000000000000000000 ) ) ;
#123 = COORDINATED_UNIVERSAL_TIME_OFFSET ( 2, 0, .AHEAD. ) ;
#124 = EDGE_CURVE ( 'NONE', #198, #28, #154, .T. ) ;
#125 = APPROVAL_PERSON_ORGANIZATION ( #27, #84, #76 ) ;
#126 = DATE_TIME_ROLE ( 'classification_date' ) ;
#127 = DATE_AND_TIME ( #141, #16 ) ;
#128 = CIRCLE ( 'NONE', #199, 25.39999999967502120 ) ;
#129 = ADVANCED_FACE ( 'NONE', ( #158 ), #85, .F. ) ;
#130 = ORIENTED_EDGE ( 'NONE', *, *, #124, .F. ) ;
#131 = EDGE_LOOP ( 'NONE', ( #12, #80, #6, #114 ) ) ;
#132 = CARTESIAN_POINT ( 'NONE',  ( 0.000000000000000000, 0.000000000000000000, 0.000000000000000000 ) ) ;
#133 = APPLICATION_PROTOCOL_DEFINITION ( 'international standard', 'config_control_design', 1994, #47 ) ;
#134 = FACE_OUTER_BOUND ( 'NONE', #30, .T. ) ;
#135 = PRODUCT_DEFINITION_SHAPE ( 'NONE', 'NONE',  #152 ) ;
#136 = CARTESIAN_POINT ( 'NONE',  ( 9.818534874028728154E-13, 0.000000000000000000, 8009.959677398381245 ) ) ;
#137 = DIRECTION ( 'NONE',  ( 1.000000000000000000, 0.000000000000000000, 0.000000000000000000 ) ) ;
#138 = MANIFOLD_SOLID_BREP ( 'Cut-Revolve1', #52 ) ;
#139 = CC_DESIGN_PERSON_AND_ORGANIZATION_ASSIGNMENT ( #36, #55, ( #83 ) ) ;
#140 = CALENDAR_DATE ( 2021, 25, 2 ) ;
#141 = CALENDAR_DATE ( 2021, 25, 2 ) ;
#142 = AXIS2_PLACEMENT_3D ( 'NONE', #144, #18, #190 ) ;
#143 = ORIENTED_EDGE ( 'NONE', *, *, #194, .F. ) ;
#144 = CARTESIAN_POINT ( 'NONE',  ( 9.818534874028728154E-13, 0.000000000000000000, 8009.959677398381245 ) ) ;
#145 = DIRECTION ( 'NONE',  ( 0.000000000000000000, -1.000000000000000000, -0.000000000000000000 ) ) ;
#146 = ORIENTED_EDGE ( 'NONE', *, *, #13, .F. ) ;
#147 = SECURITY_CLASSIFICATION_LEVEL ( 'unclassified' ) ;
#148 = AXIS2_PLACEMENT_3D ( 'NONE', #90, #188, #97 ) ;
#149 = PERSON_AND_ORGANIZATION_ROLE ( 'classification_officer' ) ;
#150 = DATE_AND_TIME ( #140, #200 ) ;
#151 = APPROVAL_STATUS ( 'not_yet_approved' ) ;
#152 = PRODUCT_DEFINITION ( 'UNKNOWN', '', #64, #78 ) ;
#153 = CYLINDRICAL_SURFACE ( 'NONE', #79, 25.39999999999999858 ) ;
#154 = CIRCLE ( 'NONE', #73, 25.39999999999999858 ) ;
#155 = CARTESIAN_POINT ( 'NONE',  ( -25.39999999999999858, 0.000000000000000000, 0.000000000000000000 ) ) ;
#156 = CARTESIAN_POINT ( 'NONE',  ( 9.818534874028728154E-13, 0.000000000000000000, 8009.959677398381245 ) ) ;
#157 = EDGE_CURVE ( 'NONE', #1, #201, #23, .T. ) ;
#158 = FACE_OUTER_BOUND ( 'NONE', #7, .T. ) ;
#159 = ORIENTED_EDGE ( 'NONE', *, *, #13, .T. ) ;
#160 =( LENGTH_UNIT ( ) NAMED_UNIT ( * ) SI_UNIT ( .MILLI., .METRE. ) );
#161 = APPROVAL_DATE_TIME ( #62, #168 ) ;
#162 = COORDINATED_UNIVERSAL_TIME_OFFSET ( 2, 0, .AHEAD. ) ;
#163 =( GEOMETRIC_REPRESENTATION_CONTEXT ( 3 ) GLOBAL_UNCERTAINTY_ASSIGNED_CONTEXT ( ( #111 ) ) GLOBAL_UNIT_ASSIGNED_CONTEXT ( ( #160, #69, #4 ) ) REPRESENTATION_CONTEXT ( 'NONE', 'WORKASPACE' ) );
#164 = PERSON_AND_ORGANIZATION ( #88, #46 ) ;
#165 = EDGE_CURVE ( 'NONE', #28, #198, #98, .T. ) ;
#166 = ORIENTED_EDGE ( 'NONE', *, *, #165, .F. ) ;
#167 = CARTESIAN_POINT ( 'NONE',  ( 1.471712207061814216E-12, 0.000000000000000000, 9.959677398381217017 ) ) ;
#168 = APPROVAL ( #58, 'UNSPECIFIED' ) ;
#169 = VECTOR ( 'NONE', #87, 1000.000000000000000 ) ;
#170 = SECURITY_CLASSIFICATION ( '', '', #147 ) ;
#171 = DIRECTION ( 'NONE',  ( 0.000000000000000000, 0.000000000000000000, 1.000000000000000000 ) ) ;
#172 = ADVANCED_BREP_SHAPE_REPRESENTATION ( '010-0540E_N-BK7_PCV_window', ( #138, #110 ), #163 ) ;
#173 = DIRECTION ( 'NONE',  ( 1.000000000000000000, 0.000000000000000000, -0.000000000000000000 ) ) ;
#174 = DIRECTION ( 'NONE',  ( 1.000000000000000000, 0.000000000000000000, 0.000000000000000000 ) ) ;
#175 = CARTESIAN_POINT ( 'NONE',  ( 0.000000000000000000, 0.000000000000000000, 0.000000000000000000 ) ) ;
#176 = CALENDAR_DATE ( 2021, 25, 2 ) ;
#177 = APPROVAL_DATE_TIME ( #150, #25 ) ;
#178 = EDGE_CURVE ( 'NONE', #1, #28, #21, .T. ) ;
#179 = DATE_AND_TIME ( #8, #113 ) ;
#180 = AXIS2_PLACEMENT_3D ( 'NONE', #117, #2, #173 ) ;
#181 = ORIENTED_EDGE ( 'NONE', *, *, #197, .F. ) ;
#182 = ORIENTED_EDGE ( 'NONE', *, *, #124, .T. ) ;
#183 = ORIENTED_EDGE ( 'NONE', *, *, #157, .T. ) ;
#184 = ADVANCED_FACE ( 'NONE', ( #49 ), #186, .T. ) ;
#185 = APPROVAL_ROLE ( '' ) ;
#186 = CYLINDRICAL_SURFACE ( 'NONE', #9, 25.39999999999999858 ) ;
#187 = AXIS2_PLACEMENT_3D ( 'NONE', #136, #145, #101 ) ;
#188 = DIRECTION ( 'NONE',  ( -0.000000000000000000, -0.000000000000000000, -1.000000000000000000 ) ) ;
#189 = EDGE_LOOP ( 'NONE', ( #181, #146, #183 ) ) ;
#190 = DIRECTION ( 'NONE',  ( 0.000000000000000000, 0.000000000000000000, 1.000000000000000000 ) ) ;
#191 = CARTESIAN_POINT ( 'NONE',  ( 0.000000000000000000, 0.000000000000000000, 10.00000000000000000 ) ) ;
#192 = PERSON_AND_ORGANIZATION ( #88, #46 ) ;
#193 = APPROVAL_PERSON_ORGANIZATION ( #192, #168, #185 ) ;
#194 = EDGE_CURVE ( 'NONE', #48, #1, #32, .T. ) ;
#195 = PERSON_AND_ORGANIZATION ( #88, #46 ) ;
#196 = COORDINATED_UNIVERSAL_TIME_OFFSET ( 2, 0, .AHEAD. ) ;
#197 = EDGE_CURVE ( 'NONE', #48, #201, #91, .T. ) ;
#198 = VERTEX_POINT ( 'NONE', #155 ) ;
#199 = AXIS2_PLACEMENT_3D ( 'NONE', #68, #37, #103 ) ;
#200 = LOCAL_TIME ( 15, 25, 19.00000000000000000, #94 ) ;
#201 = VERTEX_POINT ( 'NONE', #167 ) ;
ENDSEC;
END-ISO-10303-21;
