ISO-10303-21;
HEADER;
FILE_DESCRIPTION (( 'STEP AP203' ),
    '1' );
FILE_NAME ('010-0530E_N-BK7_PCV_window.STEP',
    '2021-02-25T13:24:35',
    ( '' ),
    ( '' ),
    'SwSTEP 2.0',
    'SolidWorks 2019',
    '' );
FILE_SCHEMA (( 'CONFIG_CONTROL_DESIGN' ));
ENDSEC;

DATA;
#1 = APPROVAL_PERSON_ORGANIZATION ( #2, #105, #168 ) ;
#2 = PERSON_AND_ORGANIZATION ( #14, #101 ) ;
#3 = ADVANCED_BREP_SHAPE_REPRESENTATION ( '010-0530E_N-BK7_PCV_window', ( #157, #59 ), #148 ) ;
#4 = CARTESIAN_POINT ( 'NONE',  ( -25.39999999999999858, 0.000000000000000000, 10.00000000000000000 ) ) ;
#5 = DIRECTION ( 'NONE',  ( 0.000000000000000000, 0.000000000000000000, 1.000000000000000000 ) ) ;
#6 = CALENDAR_DATE ( 2021, 25, 2 ) ;
#7 = DIRECTION ( 'NONE',  ( 1.000000000000000000, 0.000000000000000000, 0.000000000000000000 ) ) ;
#8 = AXIS2_PLACEMENT_3D ( 'NONE', #154, #52, #82 ) ;
#9 = CARTESIAN_POINT ( 'NONE',  ( 7.389922007661198222E-13, 0.000000000000000000, 9.999999999999786837 ) ) ;
#10 = EDGE_CURVE ( 'NONE', #21, #134, #103, .T. ) ;
#11 = PERSON_AND_ORGANIZATION_ROLE ( 'classification_officer' ) ;
#12 = CALENDAR_DATE ( 2021, 25, 2 ) ;
#13 = CIRCLE ( 'NONE', #131, 6000.000000000000000 ) ;
#14 = PERSON ( 'UNSPECIFIED', 'UNSPECIFIED', 'UNSPECIFIED', ('UNSPECIFIED'), ('UNSPECIFIED'), ('UNSPECIFIED') ) ;
#15 = ORIENTED_EDGE ( 'NONE', *, *, #73, .F. ) ;
#16 = AXIS2_PLACEMENT_3D ( 'NONE', #32, #63, #201 ) ;
#17 = ADVANCED_FACE ( 'NONE', ( #129 ), #66, .F. ) ;
#18 = APPLICATION_CONTEXT ( 'configuration controlled 3d designs of mechanical parts and assemblies' ) ;
#19 = APPLICATION_PROTOCOL_DEFINITION ( 'international standard', 'config_control_design', 1994, #111 ) ;
#20 = AXIS2_PLACEMENT_3D ( 'NONE', #144, #5, #172 ) ;
#21 = VERTEX_POINT ( 'NONE', #36 ) ;
#22 = PERSON_AND_ORGANIZATION ( #14, #101 ) ;
#23 = DIRECTION ( 'NONE',  ( 0.000000000000000000, -1.000000000000000000, -0.000000000000000000 ) ) ;
#24 = DATE_AND_TIME ( #176, #64 ) ;
#25 = DIRECTION ( 'NONE',  ( -0.000000000000000000, -0.000000000000000000, -1.000000000000000000 ) ) ;
#26 = APPROVAL_STATUS ( 'not_yet_approved' ) ;
#27 = SECURITY_CLASSIFICATION_LEVEL ( 'unclassified' ) ;
#28 = CC_DESIGN_APPROVAL ( #105, ( #74 ) ) ;
#29 = ORIENTED_EDGE ( 'NONE', *, *, #10, .T. ) ;
#30 = EDGE_CURVE ( 'NONE', #127, #180, #45, .T. ) ;
#31 = PERSON_AND_ORGANIZATION_ROLE ( 'design_owner' ) ;
#32 = CARTESIAN_POINT ( 'NONE',  ( 0.000000000000000000, 0.000000000000000000, 0.000000000000000000 ) ) ;
#33 =( NAMED_UNIT ( * ) SI_UNIT ( $, .STERADIAN. ) SOLID_ANGLE_UNIT ( ) );
#34 = DIRECTION ( 'NONE',  ( -1.000000000000000000, 0.000000000000000000, 0.000000000000000000 ) ) ;
#35 = AXIS2_PLACEMENT_3D ( 'NONE', #141, #79, #106 ) ;
#36 = CARTESIAN_POINT ( 'NONE',  ( -25.39999999999999858, 0.000000000000000000, 0.000000000000000000 ) ) ;
#37 = EDGE_CURVE ( 'NONE', #120, #21, #188, .T. ) ;
#38 = CIRCLE ( 'NONE', #35, 25.40000000009463577 ) ;
#39 = CARTESIAN_POINT ( 'NONE',  ( 25.39999999999999858, 3.110602869834276865E-15, 0.000000000000000000 ) ) ;
#40 = APPROVAL_ROLE ( '' ) ;
#41 = LINE ( 'NONE', #146, #162 ) ;
#42 = LOCAL_TIME ( 15, 24, 35.00000000000000000, #175 ) ;
#43 = CC_DESIGN_PERSON_AND_ORGANIZATION_ASSIGNMENT ( #163, #149, ( #178 ) ) ;
#44 = ORIENTED_EDGE ( 'NONE', *, *, #37, .F. ) ;
#45 = CIRCLE ( 'NONE', #182, 6000.000000000000909 ) ;
#46 = ADVANCED_FACE ( 'NONE', ( #189 ), #50, .T. ) ;
#47 = APPLICATION_PROTOCOL_DEFINITION ( 'international standard', 'config_control_design', 1994, #18 ) ;
#48 = DIRECTION ( 'NONE',  ( 0.000000000000000000, 0.000000000000000000, 1.000000000000000000 ) ) ;
#49 = DATE_TIME_ROLE ( 'classification_date' ) ;
#50 = CYLINDRICAL_SURFACE ( 'NONE', #94, 25.39999999999999858 ) ;
#51 = EDGE_CURVE ( 'NONE', #127, #134, #41, .T. ) ;
#52 = DIRECTION ( 'NONE',  ( 0.000000000000000000, -1.000000000000000000, -0.000000000000000000 ) ) ;
#53 = CYLINDRICAL_SURFACE ( 'NONE', #96, 25.39999999999999858 ) ;
#54 = CARTESIAN_POINT ( 'NONE',  ( -25.40000000009390035, 0.000000000000000000, 9.999999999999786837 ) ) ;
#55 = UNCERTAINTY_MEASURE_WITH_UNIT (LENGTH_MEASURE( 1.000000000000000082E-05 ), #167, 'distance_accuracy_value', 'NONE');
#56 = PERSON_AND_ORGANIZATION_ROLE ( 'creator' ) ;
#57 = CC_DESIGN_PERSON_AND_ORGANIZATION_ASSIGNMENT ( #89, #11, ( #74 ) ) ;
#58 = EDGE_LOOP ( 'NONE', ( #83, #75, #95 ) ) ;
#59 = AXIS2_PLACEMENT_3D ( 'NONE', #185, #107, #123 ) ;
#60 = EDGE_LOOP ( 'NONE', ( #61, #166, #117, #44 ) ) ;
#61 = ORIENTED_EDGE ( 'NONE', *, *, #135, .T. ) ;
#62 = PERSON_AND_ORGANIZATION ( #14, #101 ) ;
#63 = DIRECTION ( 'NONE',  ( 0.000000000000000000, 0.000000000000000000, 1.000000000000000000 ) ) ;
#64 = LOCAL_TIME ( 15, 24, 35.00000000000000000, #86 ) ;
#65 = DIRECTION ( 'NONE',  ( 0.000000000000000000, 0.000000000000000000, 1.000000000000000000 ) ) ;
#66 = SPHERICAL_SURFACE ( 'NONE', #8, 6000.000000000000000 ) ;
#67 = CC_DESIGN_PERSON_AND_ORGANIZATION_ASSIGNMENT ( #72, #56, ( #178 ) ) ;
#68 = APPROVAL_PERSON_ORGANIZATION ( #84, #100, #40 ) ;
#69 = APPROVAL_STATUS ( 'not_yet_approved' ) ;
#70 = CARTESIAN_POINT ( 'NONE',  ( 25.40000000009537828, 3.110602869845957529E-15, 9.999999999999786837 ) ) ;
#71 = SPHERICAL_SURFACE ( 'NONE', #81, 6000.000000000000000 ) ;
#72 = PERSON_AND_ORGANIZATION ( #14, #101 ) ;
#73 = EDGE_CURVE ( 'NONE', #120, #180, #13, .T. ) ;
#74 = SECURITY_CLASSIFICATION ( '', '', #27 ) ;
#75 = ORIENTED_EDGE ( 'NONE', *, *, #73, .T. ) ;
#76 = APPROVAL_DATE_TIME ( #199, #105 ) ;
#77 = CIRCLE ( 'NONE', #125, 25.40000000009463577 ) ;
#78 = PLANE ( 'NONE',  #16 ) ;
#79 = DIRECTION ( 'NONE',  ( -0.000000000000000000, -0.000000000000000000, -1.000000000000000000 ) ) ;
#80 = COORDINATED_UNIVERSAL_TIME_OFFSET ( 2, 0, .AHEAD. ) ;
#81 = AXIS2_PLACEMENT_3D ( 'NONE', #130, #23, #196 ) ;
#82 = DIRECTION ( 'NONE',  ( 1.000000000000000000, 0.000000000000000000, 0.000000000000000000 ) ) ;
#83 = ORIENTED_EDGE ( 'NONE', *, *, #135, .F. ) ;
#84 = PERSON_AND_ORGANIZATION ( #14, #101 ) ;
#85 = DIRECTION ( 'NONE',  ( 1.000000000000000000, 1.224646799147353207E-16, 0.000000000000000000 ) ) ;
#86 = COORDINATED_UNIVERSAL_TIME_OFFSET ( 2, 0, .AHEAD. ) ;
#87 = FACE_OUTER_BOUND ( 'NONE', #97, .T. ) ;
#88 = APPROVAL ( #26, 'UNSPECIFIED' ) ;
#89 = PERSON_AND_ORGANIZATION ( #14, #101 ) ;
#90 = CC_DESIGN_APPROVAL ( #100, ( #178 ) ) ;
#91 = ORIENTED_EDGE ( 'NONE', *, *, #37, .T. ) ;
#92 = CC_DESIGN_PERSON_AND_ORGANIZATION_ASSIGNMENT ( #22, #160, ( #121 ) ) ;
#93 = CALENDAR_DATE ( 2021, 25, 2 ) ;
#94 = AXIS2_PLACEMENT_3D ( 'NONE', #190, #169, #34 ) ;
#95 = ORIENTED_EDGE ( 'NONE', *, *, #30, .F. ) ;
#96 = AXIS2_PLACEMENT_3D ( 'NONE', #147, #194, #98 ) ;
#97 = EDGE_LOOP ( 'NONE', ( #165, #197, #91, #29 ) ) ;
#98 = DIRECTION ( 'NONE',  ( -1.000000000000000000, 0.000000000000000000, 0.000000000000000000 ) ) ;
#99 = DATE_TIME_ROLE ( 'creation_date' ) ;
#100 = APPROVAL ( #69, 'UNSPECIFIED' ) ;
#101 = ORGANIZATION ( 'UNSPECIFIED', 'UNSPECIFIED', '' ) ;
#102 = APPROVAL_DATE_TIME ( #179, #100 ) ;
#103 = CIRCLE ( 'NONE', #20, 25.39999999999999858 ) ;
#104 = ADVANCED_FACE ( 'NONE', ( #87 ), #53, .T. ) ;
#105 = APPROVAL ( #108, 'UNSPECIFIED' ) ;
#106 = DIRECTION ( 'NONE',  ( 1.000000000000000000, 0.000000000000000000, 0.000000000000000000 ) ) ;
#107 = DIRECTION ( 'NONE',  ( 0.000000000000000000, 0.000000000000000000, 1.000000000000000000 ) ) ;
#108 = APPROVAL_STATUS ( 'not_yet_approved' ) ;
#109 = DIRECTION ( 'NONE',  ( -0.000000000000000000, -0.000000000000000000, -1.000000000000000000 ) ) ;
#110 = DIRECTION ( 'NONE',  ( 0.000000000000000000, 1.000000000000000000, -0.000000000000000000 ) ) ;
#111 = APPLICATION_CONTEXT ( 'configuration controlled 3d designs of mechanical parts and assemblies' ) ;
#112 = LOCAL_TIME ( 15, 24, 35.00000000000000000, #80 ) ;
#113 = COORDINATED_UNIVERSAL_TIME_OFFSET ( 2, 0, .AHEAD. ) ;
#114 = DIRECTION ( 'NONE',  ( 1.224646799147353207E-16, -1.000000000000000000, 0.000000000000000000 ) ) ;
#115 = DESIGN_CONTEXT ( 'detailed design', #18, 'design' ) ;
#116 = ORIENTED_EDGE ( 'NONE', *, *, #10, .F. ) ;
#117 = ORIENTED_EDGE ( 'NONE', *, *, #155, .T. ) ;
#118 = EDGE_LOOP ( 'NONE', ( #15, #137, #122 ) ) ;
#119 = CIRCLE ( 'NONE', #184, 25.39999999999999858 ) ;
#120 = VERTEX_POINT ( 'NONE', #54 ) ;
#121 = PRODUCT_DEFINITION ( 'UNKNOWN', '', #178, #115 ) ;
#122 = ORIENTED_EDGE ( 'NONE', *, *, #30, .T. ) ;
#123 = DIRECTION ( 'NONE',  ( 1.000000000000000000, 0.000000000000000000, 0.000000000000000000 ) ) ;
#124 = CARTESIAN_POINT ( 'NONE',  ( 1.106386240510325671E-12, 0.000000000000000000, 9.946236425789400926 ) ) ;
#125 = AXIS2_PLACEMENT_3D ( 'NONE', #9, #191, #7 ) ;
#126 = APPROVAL_PERSON_ORGANIZATION ( #140, #88, #193 ) ;
#127 = VERTEX_POINT ( 'NONE', #70 ) ;
#128 = ADVANCED_FACE ( 'NONE', ( #159 ), #71, .F. ) ;
#129 = FACE_OUTER_BOUND ( 'NONE', #118, .T. ) ;
#130 = CARTESIAN_POINT ( 'NONE',  ( 7.389922007661198222E-13, 0.000000000000000000, 6009.946236425789721 ) ) ;
#131 = AXIS2_PLACEMENT_3D ( 'NONE', #161, #114, #85 ) ;
#132 = DATE_AND_TIME ( #6, #42 ) ;
#133 = COORDINATED_UNIVERSAL_TIME_OFFSET ( 2, 0, .AHEAD. ) ;
#134 = VERTEX_POINT ( 'NONE', #39 ) ;
#135 = EDGE_CURVE ( 'NONE', #120, #127, #77, .T. ) ;
#136 = SHAPE_DEFINITION_REPRESENTATION ( #198, #3 ) ;
#137 = ORIENTED_EDGE ( 'NONE', *, *, #177, .F. ) ;
#138 = MECHANICAL_CONTEXT ( 'NONE', #111, 'mechanical' ) ;
#139 =( NAMED_UNIT ( * ) PLANE_ANGLE_UNIT ( ) SI_UNIT ( $, .RADIAN. ) );
#140 = PERSON_AND_ORGANIZATION ( #14, #101 ) ;
#141 = CARTESIAN_POINT ( 'NONE',  ( 7.389922007661198222E-13, 0.000000000000000000, 9.999999999999786837 ) ) ;
#142 = CALENDAR_DATE ( 2021, 25, 2 ) ;
#143 = VECTOR ( 'NONE', #109, 1000.000000000000000 ) ;
#144 = CARTESIAN_POINT ( 'NONE',  ( 0.000000000000000000, 0.000000000000000000, 0.000000000000000000 ) ) ;
#145 = CC_DESIGN_PERSON_AND_ORGANIZATION_ASSIGNMENT ( #62, #31, ( #181 ) ) ;
#146 = CARTESIAN_POINT ( 'NONE',  ( 25.39999999999999858, 3.110602869834276865E-15, 10.00000000000000000 ) ) ;
#147 = CARTESIAN_POINT ( 'NONE',  ( 0.000000000000000000, 0.000000000000000000, 10.00000000000000000 ) ) ;
#148 =( GEOMETRIC_REPRESENTATION_CONTEXT ( 3 ) GLOBAL_UNCERTAINTY_ASSIGNED_CONTEXT ( ( #55 ) ) GLOBAL_UNIT_ASSIGNED_CONTEXT ( ( #167, #139, #33 ) ) REPRESENTATION_CONTEXT ( 'NONE', 'WORKASPACE' ) );
#149 = PERSON_AND_ORGANIZATION_ROLE ( 'design_supplier' ) ;
#150 = PRODUCT_RELATED_PRODUCT_CATEGORY ( 'detail', '', ( #181 ) ) ;
#151 = CC_DESIGN_APPROVAL ( #88, ( #121 ) ) ;
#152 = FACE_OUTER_BOUND ( 'NONE', #183, .T. ) ;
#153 = CC_DESIGN_SECURITY_CLASSIFICATION ( #74, ( #178 ) ) ;
#154 = CARTESIAN_POINT ( 'NONE',  ( 7.389922007661198222E-13, 0.000000000000000000, 6009.946236425789721 ) ) ;
#155 = EDGE_CURVE ( 'NONE', #134, #21, #119, .T. ) ;
#156 = ORIENTED_EDGE ( 'NONE', *, *, #155, .F. ) ;
#157 = MANIFOLD_SOLID_BREP ( 'Cut-Revolve1', #170 ) ;
#158 = LOCAL_TIME ( 15, 24, 35.00000000000000000, #113 ) ;
#159 = FACE_OUTER_BOUND ( 'NONE', #58, .T. ) ;
#160 = PERSON_AND_ORGANIZATION_ROLE ( 'creator' ) ;
#161 = CARTESIAN_POINT ( 'NONE',  ( 7.389922007661198222E-13, 0.000000000000000000, 6009.946236425789721 ) ) ;
#162 = VECTOR ( 'NONE', #25, 1000.000000000000000 ) ;
#163 = PERSON_AND_ORGANIZATION ( #14, #101 ) ;
#164 = CC_DESIGN_DATE_AND_TIME_ASSIGNMENT ( #187, #49, ( #74 ) ) ;
#165 = ORIENTED_EDGE ( 'NONE', *, *, #51, .F. ) ;
#166 = ORIENTED_EDGE ( 'NONE', *, *, #51, .T. ) ;
#167 =( LENGTH_UNIT ( ) NAMED_UNIT ( * ) SI_UNIT ( .MILLI., .METRE. ) );
#168 = APPROVAL_ROLE ( '' ) ;
#169 = DIRECTION ( 'NONE',  ( -0.000000000000000000, -0.000000000000000000, -1.000000000000000000 ) ) ;
#170 = CLOSED_SHELL ( 'NONE', ( #128, #46, #104, #200, #17 ) ) ;
#171 = CC_DESIGN_DATE_AND_TIME_ASSIGNMENT ( #24, #99, ( #121 ) ) ;
#172 = DIRECTION ( 'NONE',  ( 1.000000000000000000, 0.000000000000000000, 0.000000000000000000 ) ) ;
#173 = LOCAL_TIME ( 15, 24, 35.00000000000000000, #133 ) ;
#174 = CARTESIAN_POINT ( 'NONE',  ( 0.000000000000000000, 0.000000000000000000, 0.000000000000000000 ) ) ;
#175 = COORDINATED_UNIVERSAL_TIME_OFFSET ( 2, 0, .AHEAD. ) ;
#176 = CALENDAR_DATE ( 2021, 25, 2 ) ;
#177 = EDGE_CURVE ( 'NONE', #127, #120, #38, .T. ) ;
#178 = PRODUCT_DEFINITION_FORMATION_WITH_SPECIFIED_SOURCE ( 'ANY', '', #181, .NOT_KNOWN. ) ;
#179 = DATE_AND_TIME ( #12, #158 ) ;
#180 = VERTEX_POINT ( 'NONE', #124 ) ;
#181 = PRODUCT ( '010-0530E_N-BK7_PCV_window', '010-0530E_N-BK7_PCV_window', '', ( #138 ) ) ;
#182 = AXIS2_PLACEMENT_3D ( 'NONE', #192, #110, #65 ) ;
#183 = EDGE_LOOP ( 'NONE', ( #116, #156 ) ) ;
#184 = AXIS2_PLACEMENT_3D ( 'NONE', #174, #48, #186 ) ;
#185 = CARTESIAN_POINT ( 'NONE',  ( 0.000000000000000000, 0.000000000000000000, 0.000000000000000000 ) ) ;
#186 = DIRECTION ( 'NONE',  ( 1.000000000000000000, 0.000000000000000000, 0.000000000000000000 ) ) ;
#187 = DATE_AND_TIME ( #93, #173 ) ;
#188 = LINE ( 'NONE', #4, #143 ) ;
#189 = FACE_OUTER_BOUND ( 'NONE', #60, .T. ) ;
#190 = CARTESIAN_POINT ( 'NONE',  ( 0.000000000000000000, 0.000000000000000000, 10.00000000000000000 ) ) ;
#191 = DIRECTION ( 'NONE',  ( -0.000000000000000000, -0.000000000000000000, -1.000000000000000000 ) ) ;
#192 = CARTESIAN_POINT ( 'NONE',  ( 7.389922007661198222E-13, 0.000000000000000000, 6009.946236425789721 ) ) ;
#193 = APPROVAL_ROLE ( '' ) ;
#194 = DIRECTION ( 'NONE',  ( -0.000000000000000000, -0.000000000000000000, -1.000000000000000000 ) ) ;
#195 = APPROVAL_DATE_TIME ( #132, #88 ) ;
#196 = DIRECTION ( 'NONE',  ( 1.000000000000000000, 0.000000000000000000, 0.000000000000000000 ) ) ;
#197 = ORIENTED_EDGE ( 'NONE', *, *, #177, .T. ) ;
#198 = PRODUCT_DEFINITION_SHAPE ( 'NONE', 'NONE',  #121 ) ;
#199 = DATE_AND_TIME ( #142, #112 ) ;
#200 = ADVANCED_FACE ( 'NONE', ( #152 ), #78, .F. ) ;
#201 = DIRECTION ( 'NONE',  ( 1.000000000000000000, 0.000000000000000000, -0.000000000000000000 ) ) ;
ENDSEC;
END-ISO-10303-21;
