ISO-10303-21;
HEADER;
FILE_DESCRIPTION (( 'STEP AP203' ),
    '1' );
FILE_NAME ('010-0525E_N-BK7_PCV_window.STEP',
    '2021-02-25T13:24:03',
    ( '' ),
    ( '' ),
    'SwSTEP 2.0',
    'SolidWorks 2019',
    '' );
FILE_SCHEMA (( 'CONFIG_CONTROL_DESIGN' ));
ENDSEC;

DATA;
#1 = ADVANCED_BREP_SHAPE_REPRESENTATION ( '010-0525E_N-BK7_PCV_window', ( #109, #116 ), #186 ) ;
#2 = CARTESIAN_POINT ( 'NONE',  ( 0.000000000000000000, 0.000000000000000000, 10.00000000000000000 ) ) ;
#3 = PLANE ( 'NONE',  #188 ) ;
#4 = AXIS2_PLACEMENT_3D ( 'NONE', #23, #106, #57 ) ;
#5 = LOCAL_TIME ( 15, 24, 3.000000000000000000, #137 ) ;
#6 = PERSON_AND_ORGANIZATION ( #125, #73 ) ;
#7 = SPHERICAL_SURFACE ( 'NONE', #131, 5000.000000000000000 ) ;
#8 = CARTESIAN_POINT ( 'NONE',  ( 0.000000000000000000, 0.000000000000000000, 10.00000000000000000 ) ) ;
#9 = CALENDAR_DATE ( 2021, 25, 2 ) ;
#10 = PERSON_AND_ORGANIZATION_ROLE ( 'creator' ) ;
#11 = ADVANCED_FACE ( 'NONE', ( #185 ), #3, .F. ) ;
#12 = UNCERTAINTY_MEASURE_WITH_UNIT (LENGTH_MEASURE( 1.000000000000000082E-05 ), #169, 'distance_accuracy_value', 'NONE');
#13 = ORIENTED_EDGE ( 'NONE', *, *, #200, .F. ) ;
#14 = CARTESIAN_POINT ( 'NONE',  ( 6.140921104957897114E-13, 0.000000000000000000, 5009.935483583763016 ) ) ;
#15 = ORIENTED_EDGE ( 'NONE', *, *, #52, .T. ) ;
#16 = APPROVAL_DATE_TIME ( #189, #190 ) ;
#17 = CC_DESIGN_PERSON_AND_ORGANIZATION_ASSIGNMENT ( #167, #192, ( #82 ) ) ;
#18 = CIRCLE ( 'NONE', #138, 25.39999999999999858 ) ;
#19 = APPLICATION_CONTEXT ( 'configuration controlled 3d designs of mechanical parts and assemblies' ) ;
#20 = LOCAL_TIME ( 15, 24, 3.000000000000000000, #135 ) ;
#21 = CARTESIAN_POINT ( 'NONE',  ( 6.140921104957897114E-13, 0.000000000000000000, 9.999999999999786837 ) ) ;
#22 = APPROVAL_STATUS ( 'not_yet_approved' ) ;
#23 = CARTESIAN_POINT ( 'NONE',  ( 6.140921104957897114E-13, 0.000000000000000000, 9.999999999999786837 ) ) ;
#24 = DATE_AND_TIME ( #166, #5 ) ;
#25 = PERSON_AND_ORGANIZATION ( #125, #73 ) ;
#26 = LINE ( 'NONE', #121, #122 ) ;
#27 = PRODUCT_RELATED_PRODUCT_CATEGORY ( 'detail', '', ( #82 ) ) ;
#28 = COORDINATED_UNIVERSAL_TIME_OFFSET ( 2, 0, .AHEAD. ) ;
#29 = CC_DESIGN_DATE_AND_TIME_ASSIGNMENT ( #91, #152, ( #183 ) ) ;
#30 = VERTEX_POINT ( 'NONE', #159 ) ;
#31 = ORIENTED_EDGE ( 'NONE', *, *, #200, .T. ) ;
#32 = CYLINDRICAL_SURFACE ( 'NONE', #40, 25.39999999999999858 ) ;
#33 = CARTESIAN_POINT ( 'NONE',  ( 0.000000000000000000, 0.000000000000000000, 0.000000000000000000 ) ) ;
#34 = APPROVAL_ROLE ( '' ) ;
#35 = EDGE_CURVE ( 'NONE', #81, #94, #105, .T. ) ;
#36 = LOCAL_TIME ( 15, 24, 3.000000000000000000, #28 ) ;
#37 = DIRECTION ( 'NONE',  ( -1.000000000000000000, 0.000000000000000000, 0.000000000000000000 ) ) ;
#38 = PERSON_AND_ORGANIZATION ( #125, #73 ) ;
#39 = CARTESIAN_POINT ( 'NONE',  ( 25.39999999999999858, 3.110602869834276865E-15, 10.00000000000000000 ) ) ;
#40 = AXIS2_PLACEMENT_3D ( 'NONE', #2, #65, #127 ) ;
#41 = MECHANICAL_CONTEXT ( 'NONE', #19, 'mechanical' ) ;
#42 = CC_DESIGN_DATE_AND_TIME_ASSIGNMENT ( #180, #43, ( #101 ) ) ;
#43 = DATE_TIME_ROLE ( 'classification_date' ) ;
#44 = EDGE_LOOP ( 'NONE', ( #13, #171, #15 ) ) ;
#45 = ORIENTED_EDGE ( 'NONE', *, *, #179, .F. ) ;
#46 = LOCAL_TIME ( 15, 24, 3.000000000000000000, #68 ) ;
#47 = PRODUCT_DEFINITION_SHAPE ( 'NONE', 'NONE',  #183 ) ;
#48 = ORIENTED_EDGE ( 'NONE', *, *, #147, .F. ) ;
#49 = DIRECTION ( 'NONE',  ( 0.000000000000000000, 0.000000000000000000, 1.000000000000000000 ) ) ;
#50 = AXIS2_PLACEMENT_3D ( 'NONE', #14, #66, #49 ) ;
#51 = SHAPE_DEFINITION_REPRESENTATION ( #47, #1 ) ;
#52 = EDGE_CURVE ( 'NONE', #158, #64, #157, .T. ) ;
#53 = DIRECTION ( 'NONE',  ( 1.000000000000000000, 0.000000000000000000, 0.000000000000000000 ) ) ;
#54 = DIRECTION ( 'NONE',  ( 0.000000000000000000, 0.000000000000000000, 1.000000000000000000 ) ) ;
#55 = DIRECTION ( 'NONE',  ( 0.000000000000000000, -1.000000000000000000, -0.000000000000000000 ) ) ;
#56 = APPROVAL_DATE_TIME ( #150, #142 ) ;
#57 = DIRECTION ( 'NONE',  ( 1.000000000000000000, 0.000000000000000000, 0.000000000000000000 ) ) ;
#58 = AXIS2_PLACEMENT_3D ( 'NONE', #33, #187, #144 ) ;
#59 = EDGE_CURVE ( 'NONE', #94, #81, #18, .T. ) ;
#60 = CC_DESIGN_SECURITY_CLASSIFICATION ( #101, ( #87 ) ) ;
#61 = DIRECTION ( 'NONE',  ( -0.000000000000000000, -0.000000000000000000, -1.000000000000000000 ) ) ;
#62 = SECURITY_CLASSIFICATION_LEVEL ( 'unclassified' ) ;
#63 = DESIGN_CONTEXT ( 'detailed design', #100, 'design' ) ;
#64 = VERTEX_POINT ( 'NONE', #84 ) ;
#65 = DIRECTION ( 'NONE',  ( -0.000000000000000000, -0.000000000000000000, -1.000000000000000000 ) ) ;
#66 = DIRECTION ( 'NONE',  ( 0.000000000000000000, 1.000000000000000000, -0.000000000000000000 ) ) ;
#67 = ADVANCED_FACE ( 'NONE', ( #145 ), #32, .T. ) ;
#68 = COORDINATED_UNIVERSAL_TIME_OFFSET ( 2, 0, .AHEAD. ) ;
#69 = AXIS2_PLACEMENT_3D ( 'NONE', #149, #132, #162 ) ;
#70 = APPROVAL_PERSON_ORGANIZATION ( #108, #190, #34 ) ;
#71 = APPROVAL_STATUS ( 'not_yet_approved' ) ;
#72 = CARTESIAN_POINT ( 'NONE',  ( 6.140921104957897114E-13, 0.000000000000000000, 5009.935483583763016 ) ) ;
#73 = ORGANIZATION ( 'UNSPECIFIED', 'UNSPECIFIED', '' ) ;
#74 = PERSON_AND_ORGANIZATION_ROLE ( 'creator' ) ;
#75 = SPHERICAL_SURFACE ( 'NONE', #69, 5000.000000000000000 ) ;
#76 = CARTESIAN_POINT ( 'NONE',  ( 0.000000000000000000, 0.000000000000000000, 0.000000000000000000 ) ) ;
#77 = EDGE_CURVE ( 'NONE', #30, #158, #86, .T. ) ;
#78 = CC_DESIGN_APPROVAL ( #142, ( #183 ) ) ;
#79 = PERSON_AND_ORGANIZATION ( #125, #73 ) ;
#80 = ORIENTED_EDGE ( 'NONE', *, *, #52, .F. ) ;
#81 = VERTEX_POINT ( 'NONE', #119 ) ;
#82 = PRODUCT ( '010-0525E_N-BK7_PCV_window', '010-0525E_N-BK7_PCV_window', '', ( #41 ) ) ;
#83 = CC_DESIGN_PERSON_AND_ORGANIZATION_ASSIGNMENT ( #124, #156, ( #87 ) ) ;
#84 = CARTESIAN_POINT ( 'NONE',  ( 9.202538102826278847E-13, 0.000000000000000000, 9.935483583762838578 ) ) ;
#85 = CARTESIAN_POINT ( 'NONE',  ( 0.000000000000000000, 0.000000000000000000, 0.000000000000000000 ) ) ;
#86 = CIRCLE ( 'NONE', #165, 25.40000000002469704 ) ;
#87 = PRODUCT_DEFINITION_FORMATION_WITH_SPECIFIED_SOURCE ( 'ANY', '', #82, .NOT_KNOWN. ) ;
#88 = CALENDAR_DATE ( 2021, 25, 2 ) ;
#89 = FACE_OUTER_BOUND ( 'NONE', #126, .T. ) ;
#90 = ADVANCED_FACE ( 'NONE', ( #89 ), #151, .T. ) ;
#91 = DATE_AND_TIME ( #9, #20 ) ;
#92 = DIRECTION ( 'NONE',  ( 1.000000000000000000, 1.224646799147353207E-16, 0.000000000000000000 ) ) ;
#93 = APPROVAL_DATE_TIME ( #24, #194 ) ;
#94 = VERTEX_POINT ( 'NONE', #117 ) ;
#95 = VECTOR ( 'NONE', #104, 1000.000000000000000 ) ;
#96 = ADVANCED_FACE ( 'NONE', ( #136 ), #75, .F. ) ;
#97 = ORIENTED_EDGE ( 'NONE', *, *, #35, .F. ) ;
#98 = ORIENTED_EDGE ( 'NONE', *, *, #168, .T. ) ;
#99 = DIRECTION ( 'NONE',  ( 0.000000000000000000, 0.000000000000000000, 1.000000000000000000 ) ) ;
#100 = APPLICATION_CONTEXT ( 'configuration controlled 3d designs of mechanical parts and assemblies' ) ;
#101 = SECURITY_CLASSIFICATION ( '', '', #62 ) ;
#102 = APPROVAL_PERSON_ORGANIZATION ( #25, #142, #177 ) ;
#103 = CC_DESIGN_PERSON_AND_ORGANIZATION_ASSIGNMENT ( #38, #74, ( #183 ) ) ;
#104 = DIRECTION ( 'NONE',  ( -0.000000000000000000, -0.000000000000000000, -1.000000000000000000 ) ) ;
#105 = CIRCLE ( 'NONE', #58, 25.39999999999999858 ) ;
#106 = DIRECTION ( 'NONE',  ( -0.000000000000000000, -0.000000000000000000, -1.000000000000000000 ) ) ;
#107 = DIRECTION ( 'NONE',  ( 1.224646799147353207E-16, -1.000000000000000000, 0.000000000000000000 ) ) ;
#108 = PERSON_AND_ORGANIZATION ( #125, #73 ) ;
#109 = MANIFOLD_SOLID_BREP ( 'Cut-Revolve1', #172 ) ;
#110 = ORIENTED_EDGE ( 'NONE', *, *, #59, .T. ) ;
#111 = ADVANCED_FACE ( 'NONE', ( #193 ), #7, .F. ) ;
#112 = ORIENTED_EDGE ( 'NONE', *, *, #77, .T. ) ;
#113 = CIRCLE ( 'NONE', #4, 25.40000000002469704 ) ;
#114 = EDGE_LOOP ( 'NONE', ( #173, #97 ) ) ;
#115 = CARTESIAN_POINT ( 'NONE',  ( 0.000000000000000000, 0.000000000000000000, 0.000000000000000000 ) ) ;
#116 = AXIS2_PLACEMENT_3D ( 'NONE', #76, #54, #120 ) ;
#117 = CARTESIAN_POINT ( 'NONE',  ( -25.39999999999999858, 0.000000000000000000, 0.000000000000000000 ) ) ;
#118 = APPLICATION_PROTOCOL_DEFINITION ( 'international standard', 'config_control_design', 1994, #19 ) ;
#119 = CARTESIAN_POINT ( 'NONE',  ( 25.39999999999999858, 3.110602869834276865E-15, 0.000000000000000000 ) ) ;
#120 = DIRECTION ( 'NONE',  ( 1.000000000000000000, 0.000000000000000000, 0.000000000000000000 ) ) ;
#121 = CARTESIAN_POINT ( 'NONE',  ( -25.39999999999999858, 0.000000000000000000, 10.00000000000000000 ) ) ;
#122 = VECTOR ( 'NONE', #61, 1000.000000000000000 ) ;
#123 = CC_DESIGN_APPROVAL ( #194, ( #87 ) ) ;
#124 = PERSON_AND_ORGANIZATION ( #125, #73 ) ;
#125 = PERSON ( 'UNSPECIFIED', 'UNSPECIFIED', 'UNSPECIFIED', ('UNSPECIFIED'), ('UNSPECIFIED'), ('UNSPECIFIED') ) ;
#126 = EDGE_LOOP ( 'NONE', ( #48, #98, #143, #110 ) ) ;
#127 = DIRECTION ( 'NONE',  ( -1.000000000000000000, 0.000000000000000000, 0.000000000000000000 ) ) ;
#128 = DIRECTION ( 'NONE',  ( 0.000000000000000000, 0.000000000000000000, 1.000000000000000000 ) ) ;
#129 = DIRECTION ( 'NONE',  ( 1.000000000000000000, 0.000000000000000000, 0.000000000000000000 ) ) ;
#130 = APPROVAL_STATUS ( 'not_yet_approved' ) ;
#131 = AXIS2_PLACEMENT_3D ( 'NONE', #72, #55, #178 ) ;
#132 = DIRECTION ( 'NONE',  ( 0.000000000000000000, -1.000000000000000000, -0.000000000000000000 ) ) ;
#133 = APPROVAL_ROLE ( '' ) ;
#134 = DIRECTION ( 'NONE',  ( -0.000000000000000000, -0.000000000000000000, -1.000000000000000000 ) ) ;
#135 = COORDINATED_UNIVERSAL_TIME_OFFSET ( 2, 0, .AHEAD. ) ;
#136 = FACE_OUTER_BOUND ( 'NONE', #182, .T. ) ;
#137 = COORDINATED_UNIVERSAL_TIME_OFFSET ( 2, 0, .AHEAD. ) ;
#138 = AXIS2_PLACEMENT_3D ( 'NONE', #85, #99, #129 ) ;
#139 = APPROVAL_PERSON_ORGANIZATION ( #6, #194, #133 ) ;
#140 = CC_DESIGN_PERSON_AND_ORGANIZATION_ASSIGNMENT ( #141, #199, ( #101 ) ) ;
#141 = PERSON_AND_ORGANIZATION ( #125, #73 ) ;
#142 = APPROVAL ( #22, 'UNSPECIFIED' ) ;
#143 = ORIENTED_EDGE ( 'NONE', *, *, #179, .T. ) ;
#144 = DIRECTION ( 'NONE',  ( 1.000000000000000000, 0.000000000000000000, 0.000000000000000000 ) ) ;
#145 = FACE_OUTER_BOUND ( 'NONE', #160, .T. ) ;
#146 = CALENDAR_DATE ( 2021, 25, 2 ) ;
#147 = EDGE_CURVE ( 'NONE', #158, #81, #176, .T. ) ;
#148 = CIRCLE ( 'NONE', #161, 5000.000000000000000 ) ;
#149 = CARTESIAN_POINT ( 'NONE',  ( 6.140921104957897114E-13, 0.000000000000000000, 5009.935483583763016 ) ) ;
#150 = DATE_AND_TIME ( #88, #174 ) ;
#151 = CYLINDRICAL_SURFACE ( 'NONE', #197, 25.39999999999999858 ) ;
#152 = DATE_TIME_ROLE ( 'creation_date' ) ;
#153 =( NAMED_UNIT ( * ) PLANE_ANGLE_UNIT ( ) SI_UNIT ( $, .RADIAN. ) );
#154 = CC_DESIGN_PERSON_AND_ORGANIZATION_ASSIGNMENT ( #79, #10, ( #87 ) ) ;
#155 = CC_DESIGN_APPROVAL ( #190, ( #101 ) ) ;
#156 = PERSON_AND_ORGANIZATION_ROLE ( 'design_supplier' ) ;
#157 = CIRCLE ( 'NONE', #50, 5000.000000000000909 ) ;
#158 = VERTEX_POINT ( 'NONE', #164 ) ;
#159 = CARTESIAN_POINT ( 'NONE',  ( -25.40000000002407887, 0.000000000000000000, 9.999999999999786837 ) ) ;
#160 = EDGE_LOOP ( 'NONE', ( #112, #201, #184, #45 ) ) ;
#161 = AXIS2_PLACEMENT_3D ( 'NONE', #196, #107, #92 ) ;
#162 = DIRECTION ( 'NONE',  ( 1.000000000000000000, 0.000000000000000000, 0.000000000000000000 ) ) ;
#163 = APPLICATION_PROTOCOL_DEFINITION ( 'international standard', 'config_control_design', 1994, #100 ) ;
#164 = CARTESIAN_POINT ( 'NONE',  ( 25.40000000002531166, 3.110602869837377089E-15, 9.999999999999786837 ) ) ;
#165 = AXIS2_PLACEMENT_3D ( 'NONE', #21, #134, #53 ) ;
#166 = CALENDAR_DATE ( 2021, 25, 2 ) ;
#167 = PERSON_AND_ORGANIZATION ( #125, #73 ) ;
#168 = EDGE_CURVE ( 'NONE', #158, #30, #113, .T. ) ;
#169 =( LENGTH_UNIT ( ) NAMED_UNIT ( * ) SI_UNIT ( .MILLI., .METRE. ) );
#170 = CALENDAR_DATE ( 2021, 25, 2 ) ;
#171 = ORIENTED_EDGE ( 'NONE', *, *, #168, .F. ) ;
#172 = CLOSED_SHELL ( 'NONE', ( #96, #67, #90, #11, #111 ) ) ;
#173 = ORIENTED_EDGE ( 'NONE', *, *, #59, .F. ) ;
#174 = LOCAL_TIME ( 15, 24, 3.000000000000000000, #195 ) ;
#175 = DIRECTION ( 'NONE',  ( 1.000000000000000000, 0.000000000000000000, -0.000000000000000000 ) ) ;
#176 = LINE ( 'NONE', #39, #95 ) ;
#177 = APPROVAL_ROLE ( '' ) ;
#178 = DIRECTION ( 'NONE',  ( 1.000000000000000000, 0.000000000000000000, 0.000000000000000000 ) ) ;
#179 = EDGE_CURVE ( 'NONE', #30, #94, #26, .T. ) ;
#180 = DATE_AND_TIME ( #170, #36 ) ;
#181 = ORIENTED_EDGE ( 'NONE', *, *, #77, .F. ) ;
#182 = EDGE_LOOP ( 'NONE', ( #181, #31, #80 ) ) ;
#183 = PRODUCT_DEFINITION ( 'UNKNOWN', '', #87, #63 ) ;
#184 = ORIENTED_EDGE ( 'NONE', *, *, #35, .T. ) ;
#185 = FACE_OUTER_BOUND ( 'NONE', #114, .T. ) ;
#186 =( GEOMETRIC_REPRESENTATION_CONTEXT ( 3 ) GLOBAL_UNCERTAINTY_ASSIGNED_CONTEXT ( ( #12 ) ) GLOBAL_UNIT_ASSIGNED_CONTEXT ( ( #169, #153, #198 ) ) REPRESENTATION_CONTEXT ( 'NONE', 'WORKASPACE' ) );
#187 = DIRECTION ( 'NONE',  ( 0.000000000000000000, 0.000000000000000000, 1.000000000000000000 ) ) ;
#188 = AXIS2_PLACEMENT_3D ( 'NONE', #115, #128, #175 ) ;
#189 = DATE_AND_TIME ( #146, #46 ) ;
#190 = APPROVAL ( #130, 'UNSPECIFIED' ) ;
#191 = DIRECTION ( 'NONE',  ( -0.000000000000000000, -0.000000000000000000, -1.000000000000000000 ) ) ;
#192 = PERSON_AND_ORGANIZATION_ROLE ( 'design_owner' ) ;
#193 = FACE_OUTER_BOUND ( 'NONE', #44, .T. ) ;
#194 = APPROVAL ( #71, 'UNSPECIFIED' ) ;
#195 = COORDINATED_UNIVERSAL_TIME_OFFSET ( 2, 0, .AHEAD. ) ;
#196 = CARTESIAN_POINT ( 'NONE',  ( 6.140921104957897114E-13, 0.000000000000000000, 5009.935483583763016 ) ) ;
#197 = AXIS2_PLACEMENT_3D ( 'NONE', #8, #191, #37 ) ;
#198 =( NAMED_UNIT ( * ) SI_UNIT ( $, .STERADIAN. ) SOLID_ANGLE_UNIT ( ) );
#199 = PERSON_AND_ORGANIZATION_ROLE ( 'classification_officer' ) ;
#200 = EDGE_CURVE ( 'NONE', #30, #64, #148, .T. ) ;
#201 = ORIENTED_EDGE ( 'NONE', *, *, #147, .T. ) ;
ENDSEC;
END-ISO-10303-21;
