ISO-10303-21;
HEADER;
FILE_DESCRIPTION (( 'STEP AP203' ),
    '1' );
FILE_NAME ('010-0524E_N-BK7_PCV_window.STEP',
    '2021-02-25T13:23:30',
    ( '' ),
    ( '' ),
    'SwSTEP 2.0',
    'SolidWorks 2019',
    '' );
FILE_SCHEMA (( 'CONFIG_CONTROL_DESIGN' ));
ENDSEC;

DATA;
#1 = CC_DESIGN_APPROVAL ( #13, ( #32 ) ) ;
#2 = EDGE_LOOP ( 'NONE', ( #120, #142, #53 ) ) ;
#3 = PERSON ( 'UNSPECIFIED', 'UNSPECIFIED', 'UNSPECIFIED', ('UNSPECIFIED'), ('UNSPECIFIED'), ('UNSPECIFIED') ) ;
#4 = LINE ( 'NONE', #21, #82 ) ;
#5 = APPLICATION_CONTEXT ( 'configuration controlled 3d designs of mechanical parts and assemblies' ) ;
#6 = CARTESIAN_POINT ( 'NONE',  ( 4.926614671774132148E-13, 0.000000000000000000, 4009.919354187031786 ) ) ;
#7 = VERTEX_POINT ( 'NONE', #35 ) ;
#8 = DIRECTION ( 'NONE',  ( -0.000000000000000000, -0.000000000000000000, -1.000000000000000000 ) ) ;
#9 = FACE_OUTER_BOUND ( 'NONE', #2, .T. ) ;
#10 = DIRECTION ( 'NONE',  ( 1.000000000000000000, 1.224646799147353207E-16, 0.000000000000000000 ) ) ;
#11 = APPROVAL_DATE_TIME ( #126, #186 ) ;
#12 = DATE_AND_TIME ( #131, #97 ) ;
#13 = APPROVAL ( #144, 'UNSPECIFIED' ) ;
#14 = CARTESIAN_POINT ( 'NONE',  ( 4.926614671774132148E-13, 0.000000000000000000, 4009.919354187031786 ) ) ;
#15 = PERSON_AND_ORGANIZATION ( #3, #25 ) ;
#16 = APPLICATION_PROTOCOL_DEFINITION ( 'international standard', 'config_control_design', 1994, #5 ) ;
#17 = AXIS2_PLACEMENT_3D ( 'NONE', #169, #96, #43 ) ;
#18 = CC_DESIGN_PERSON_AND_ORGANIZATION_ASSIGNMENT ( #168, #90, ( #32 ) ) ;
#19 = CARTESIAN_POINT ( 'NONE',  ( 0.000000000000000000, 0.000000000000000000, 10.00000000000000000 ) ) ;
#20 = CC_DESIGN_SECURITY_CLASSIFICATION ( #116, ( #32 ) ) ;
#21 = CARTESIAN_POINT ( 'NONE',  ( -25.39999999999999858, 0.000000000000000000, 10.00000000000000000 ) ) ;
#22 = DIRECTION ( 'NONE',  ( -0.000000000000000000, -0.000000000000000000, -1.000000000000000000 ) ) ;
#23 = ORIENTED_EDGE ( 'NONE', *, *, #160, .F. ) ;
#24 = DIRECTION ( 'NONE',  ( 0.000000000000000000, 0.000000000000000000, 1.000000000000000000 ) ) ;
#25 = ORGANIZATION ( 'UNSPECIFIED', 'UNSPECIFIED', '' ) ;
#26 = DIRECTION ( 'NONE',  ( -0.000000000000000000, -0.000000000000000000, -1.000000000000000000 ) ) ;
#27 = PERSON_AND_ORGANIZATION ( #3, #25 ) ;
#28 = CARTESIAN_POINT ( 'NONE',  ( 0.000000000000000000, 0.000000000000000000, 0.000000000000000000 ) ) ;
#29 = EDGE_CURVE ( 'NONE', #102, #42, #4, .T. ) ;
#30 = COORDINATED_UNIVERSAL_TIME_OFFSET ( 2, 0, .AHEAD. ) ;
#31 = PERSON_AND_ORGANIZATION ( #3, #25 ) ;
#32 = PRODUCT_DEFINITION_FORMATION_WITH_SPECIFIED_SOURCE ( 'ANY', '', #158, .NOT_KNOWN. ) ;
#33 = CC_DESIGN_PERSON_AND_ORGANIZATION_ASSIGNMENT ( #31, #46, ( #32 ) ) ;
#34 = CIRCLE ( 'NONE', #86, 4000.000000000000000 ) ;
#35 = CARTESIAN_POINT ( 'NONE',  ( 25.39999999999999858, 3.110602869834276865E-15, 0.000000000000000000 ) ) ;
#36 = DIRECTION ( 'NONE',  ( 1.000000000000000000, 0.000000000000000000, -0.000000000000000000 ) ) ;
#37 = ADVANCED_FACE ( 'NONE', ( #159 ), #39, .F. ) ;
#38 = ORIENTED_EDGE ( 'NONE', *, *, #134, .F. ) ;
#39 = PLANE ( 'NONE',  #135 ) ;
#40 = ORIENTED_EDGE ( 'NONE', *, *, #133, .T. ) ;
#41 = AXIS2_PLACEMENT_3D ( 'NONE', #103, #22, #100 ) ;
#42 = VERTEX_POINT ( 'NONE', #121 ) ;
#43 = DIRECTION ( 'NONE',  ( 1.000000000000000000, 0.000000000000000000, 0.000000000000000000 ) ) ;
#44 = ORIENTED_EDGE ( 'NONE', *, *, #78, .F. ) ;
#45 =( NAMED_UNIT ( * ) SI_UNIT ( $, .STERADIAN. ) SOLID_ANGLE_UNIT ( ) );
#46 = PERSON_AND_ORGANIZATION_ROLE ( 'creator' ) ;
#47 = PERSON_AND_ORGANIZATION_ROLE ( 'design_owner' ) ;
#48 = COORDINATED_UNIVERSAL_TIME_OFFSET ( 2, 0, .AHEAD. ) ;
#49 = PERSON_AND_ORGANIZATION ( #3, #25 ) ;
#50 = PRODUCT_DEFINITION ( 'UNKNOWN', '', #32, #58 ) ;
#51 = PRODUCT_DEFINITION_SHAPE ( 'NONE', 'NONE',  #50 ) ;
#52 = LOCAL_TIME ( 15, 23, 30.00000000000000000, #109 ) ;
#53 = ORIENTED_EDGE ( 'NONE', *, *, #160, .T. ) ;
#54 = EDGE_LOOP ( 'NONE', ( #44, #75, #23 ) ) ;
#55 = CARTESIAN_POINT ( 'NONE',  ( 0.000000000000000000, 0.000000000000000000, 0.000000000000000000 ) ) ;
#56 = CC_DESIGN_PERSON_AND_ORGANIZATION_ASSIGNMENT ( #129, #181, ( #50 ) ) ;
#57 = APPLICATION_CONTEXT ( 'configuration controlled 3d designs of mechanical parts and assemblies' ) ;
#58 = DESIGN_CONTEXT ( 'detailed design', #5, 'design' ) ;
#59 = CC_DESIGN_APPROVAL ( #79, ( #116 ) ) ;
#60 = CARTESIAN_POINT ( 'NONE',  ( 4.926614671774132148E-13, 0.000000000000000000, 4009.919354187031786 ) ) ;
#61 = CALENDAR_DATE ( 2021, 25, 2 ) ;
#62 = DATE_AND_TIME ( #154, #189 ) ;
#63 = ADVANCED_FACE ( 'NONE', ( #137 ), #191, .T. ) ;
#64 = AXIS2_PLACEMENT_3D ( 'NONE', #151, #8, #77 ) ;
#65 = PERSON_AND_ORGANIZATION ( #3, #25 ) ;
#66 = DATE_AND_TIME ( #92, #105 ) ;
#67 = APPROVAL_STATUS ( 'not_yet_approved' ) ;
#68 = AXIS2_PLACEMENT_3D ( 'NONE', #14, #196, #98 ) ;
#69 = CARTESIAN_POINT ( 'NONE',  ( 7.375908270068839150E-13, 0.000000000000000000, 9.919354187031714787 ) ) ;
#70 = DIRECTION ( 'NONE',  ( 1.000000000000000000, 0.000000000000000000, 0.000000000000000000 ) ) ;
#71 = CIRCLE ( 'NONE', #183, 25.39999999999999858 ) ;
#72 = EDGE_LOOP ( 'NONE', ( #177, #139 ) ) ;
#73 = ORIENTED_EDGE ( 'NONE', *, *, #117, .T. ) ;
#74 = PRODUCT_RELATED_PRODUCT_CATEGORY ( 'detail', '', ( #158 ) ) ;
#75 = ORIENTED_EDGE ( 'NONE', *, *, #138, .T. ) ;
#76 = ORIENTED_EDGE ( 'NONE', *, *, #78, .T. ) ;
#77 = DIRECTION ( 'NONE',  ( 1.000000000000000000, 0.000000000000000000, 0.000000000000000000 ) ) ;
#78 = EDGE_CURVE ( 'NONE', #102, #125, #150, .T. ) ;
#79 = APPROVAL ( #95, 'UNSPECIFIED' ) ;
#80 = CLOSED_SHELL ( 'NONE', ( #112, #63, #167, #37, #176 ) ) ;
#81 = APPROVAL_PERSON_ORGANIZATION ( #27, #13, #197 ) ;
#82 = VECTOR ( 'NONE', #192, 1000.000000000000000 ) ;
#83 = DIRECTION ( 'NONE',  ( -0.000000000000000000, -0.000000000000000000, -1.000000000000000000 ) ) ;
#84 = CARTESIAN_POINT ( 'NONE',  ( 0.000000000000000000, 0.000000000000000000, 10.00000000000000000 ) ) ;
#85 = DIRECTION ( 'NONE',  ( -0.000000000000000000, -0.000000000000000000, -1.000000000000000000 ) ) ;
#86 = AXIS2_PLACEMENT_3D ( 'NONE', #6, #124, #24 ) ;
#87 = CARTESIAN_POINT ( 'NONE',  ( 25.39999999995525570, 3.110602869831537546E-15, 9.999999999999786837 ) ) ;
#88 = ADVANCED_BREP_SHAPE_REPRESENTATION ( '010-0524E_N-BK7_PCV_window', ( #173, #118 ), #174 ) ;
#89 = APPROVAL_DATE_TIME ( #66, #79 ) ;
#90 = PERSON_AND_ORGANIZATION_ROLE ( 'design_supplier' ) ;
#91 = EDGE_CURVE ( 'NONE', #7, #42, #155, .T. ) ;
#92 = CALENDAR_DATE ( 2021, 25, 2 ) ;
#93 = CC_DESIGN_PERSON_AND_ORGANIZATION_ASSIGNMENT ( #198, #114, ( #116 ) ) ;
#94 = CALENDAR_DATE ( 2021, 25, 2 ) ;
#95 = APPROVAL_STATUS ( 'not_yet_approved' ) ;
#96 = DIRECTION ( 'NONE',  ( 0.000000000000000000, -1.000000000000000000, -0.000000000000000000 ) ) ;
#97 = LOCAL_TIME ( 15, 23, 30.00000000000000000, #30 ) ;
#98 = DIRECTION ( 'NONE',  ( 1.000000000000000000, 0.000000000000000000, 0.000000000000000000 ) ) ;
#99 = AXIS2_PLACEMENT_3D ( 'NONE', #19, #83, #163 ) ;
#100 = DIRECTION ( 'NONE',  ( 1.000000000000000000, 0.000000000000000000, 0.000000000000000000 ) ) ;
#101 = CIRCLE ( 'NONE', #188, 4000.000000000000000 ) ;
#102 = VERTEX_POINT ( 'NONE', #157 ) ;
#103 = CARTESIAN_POINT ( 'NONE',  ( 4.926614671774132148E-13, 0.000000000000000000, 9.999999999999786837 ) ) ;
#104 = AXIS2_PLACEMENT_3D ( 'NONE', #84, #85, #148 ) ;
#105 = LOCAL_TIME ( 15, 23, 30.00000000000000000, #48 ) ;
#106 = VERTEX_POINT ( 'NONE', #69 ) ;
#107 = CARTESIAN_POINT ( 'NONE',  ( 0.000000000000000000, 0.000000000000000000, 0.000000000000000000 ) ) ;
#108 = DIRECTION ( 'NONE',  ( 1.224646799147353207E-16, -1.000000000000000000, 0.000000000000000000 ) ) ;
#109 = COORDINATED_UNIVERSAL_TIME_OFFSET ( 2, 0, .AHEAD. ) ;
#110 = AXIS2_PLACEMENT_3D ( 'NONE', #136, #190, #70 ) ;
#111 = COORDINATED_UNIVERSAL_TIME_OFFSET ( 2, 0, .AHEAD. ) ;
#112 = ADVANCED_FACE ( 'NONE', ( #172 ), #184, .F. ) ;
#113 = DATE_AND_TIME ( #94, #178 ) ;
#114 = PERSON_AND_ORGANIZATION_ROLE ( 'classification_officer' ) ;
#115 = DATE_TIME_ROLE ( 'classification_date' ) ;
#116 = SECURITY_CLASSIFICATION ( '', '', #127 ) ;
#117 = EDGE_CURVE ( 'NONE', #42, #7, #71, .T. ) ;
#118 = AXIS2_PLACEMENT_3D ( 'NONE', #28, #185, #153 ) ;
#119 = EDGE_LOOP ( 'NONE', ( #38, #40, #164, #73 ) ) ;
#120 = ORIENTED_EDGE ( 'NONE', *, *, #138, .F. ) ;
#121 = CARTESIAN_POINT ( 'NONE',  ( -25.39999999999999858, 0.000000000000000000, 0.000000000000000000 ) ) ;
#122 = EDGE_LOOP ( 'NONE', ( #76, #179, #162, #140 ) ) ;
#123 = APPROVAL_PERSON_ORGANIZATION ( #15, #79, #143 ) ;
#124 = DIRECTION ( 'NONE',  ( 0.000000000000000000, 1.000000000000000000, -0.000000000000000000 ) ) ;
#125 = VERTEX_POINT ( 'NONE', #87 ) ;
#126 = DATE_AND_TIME ( #61, #52 ) ;
#127 = SECURITY_CLASSIFICATION_LEVEL ( 'unclassified' ) ;
#128 = CC_DESIGN_APPROVAL ( #186, ( #50 ) ) ;
#129 = PERSON_AND_ORGANIZATION ( #3, #25 ) ;
#130 =( NAMED_UNIT ( * ) PLANE_ANGLE_UNIT ( ) SI_UNIT ( $, .RADIAN. ) );
#131 = CALENDAR_DATE ( 2021, 25, 2 ) ;
#132 = APPROVAL_ROLE ( '' ) ;
#133 = EDGE_CURVE ( 'NONE', #125, #102, #171, .T. ) ;
#134 = EDGE_CURVE ( 'NONE', #125, #7, #193, .T. ) ;
#135 = AXIS2_PLACEMENT_3D ( 'NONE', #55, #175, #36 ) ;
#136 = CARTESIAN_POINT ( 'NONE',  ( 0.000000000000000000, 0.000000000000000000, 0.000000000000000000 ) ) ;
#137 = FACE_OUTER_BOUND ( 'NONE', #122, .T. ) ;
#138 = EDGE_CURVE ( 'NONE', #102, #106, #101, .T. ) ;
#139 = ORIENTED_EDGE ( 'NONE', *, *, #91, .F. ) ;
#140 = ORIENTED_EDGE ( 'NONE', *, *, #29, .F. ) ;
#141 = SPHERICAL_SURFACE ( 'NONE', #68, 4000.000000000000000 ) ;
#142 = ORIENTED_EDGE ( 'NONE', *, *, #133, .F. ) ;
#143 = APPROVAL_ROLE ( '' ) ;
#144 = APPROVAL_STATUS ( 'not_yet_approved' ) ;
#145 = APPLICATION_PROTOCOL_DEFINITION ( 'international standard', 'config_control_design', 1994, #57 ) ;
#146 = APPROVAL_PERSON_ORGANIZATION ( #49, #186, #132 ) ;
#147 = FACE_OUTER_BOUND ( 'NONE', #119, .T. ) ;
#148 = DIRECTION ( 'NONE',  ( -1.000000000000000000, 0.000000000000000000, 0.000000000000000000 ) ) ;
#149 = CC_DESIGN_DATE_AND_TIME_ASSIGNMENT ( #12, #115, ( #116 ) ) ;
#150 = CIRCLE ( 'NONE', #41, 25.39999999995476543 ) ;
#151 = CARTESIAN_POINT ( 'NONE',  ( 4.926614671774132148E-13, 0.000000000000000000, 9.999999999999786837 ) ) ;
#152 = SHAPE_DEFINITION_REPRESENTATION ( #51, #88 ) ;
#153 = DIRECTION ( 'NONE',  ( 1.000000000000000000, 0.000000000000000000, 0.000000000000000000 ) ) ;
#154 = CALENDAR_DATE ( 2021, 25, 2 ) ;
#155 = CIRCLE ( 'NONE', #110, 25.39999999999999858 ) ;
#156 = CC_DESIGN_DATE_AND_TIME_ASSIGNMENT ( #113, #166, ( #50 ) ) ;
#157 = CARTESIAN_POINT ( 'NONE',  ( -25.39999999995427160, 0.000000000000000000, 9.999999999999786837 ) ) ;
#158 = PRODUCT ( '010-0524E_N-BK7_PCV_window', '010-0524E_N-BK7_PCV_window', '', ( #201 ) ) ;
#159 = FACE_OUTER_BOUND ( 'NONE', #72, .T. ) ;
#160 = EDGE_CURVE ( 'NONE', #125, #106, #34, .T. ) ;
#161 = VECTOR ( 'NONE', #26, 1000.000000000000000 ) ;
#162 = ORIENTED_EDGE ( 'NONE', *, *, #91, .T. ) ;
#163 = DIRECTION ( 'NONE',  ( -1.000000000000000000, 0.000000000000000000, 0.000000000000000000 ) ) ;
#164 = ORIENTED_EDGE ( 'NONE', *, *, #29, .T. ) ;
#165 = DIRECTION ( 'NONE',  ( 0.000000000000000000, 0.000000000000000000, 1.000000000000000000 ) ) ;
#166 = DATE_TIME_ROLE ( 'creation_date' ) ;
#167 = ADVANCED_FACE ( 'NONE', ( #147 ), #187, .T. ) ;
#168 = PERSON_AND_ORGANIZATION ( #3, #25 ) ;
#169 = CARTESIAN_POINT ( 'NONE',  ( 4.926614671774132148E-13, 0.000000000000000000, 4009.919354187031786 ) ) ;
#170 = COORDINATED_UNIVERSAL_TIME_OFFSET ( 2, 0, .AHEAD. ) ;
#171 = CIRCLE ( 'NONE', #64, 25.39999999995476543 ) ;
#172 = FACE_OUTER_BOUND ( 'NONE', #54, .T. ) ;
#173 = MANIFOLD_SOLID_BREP ( 'Cut-Revolve1', #80 ) ;
#174 =( GEOMETRIC_REPRESENTATION_CONTEXT ( 3 ) GLOBAL_UNCERTAINTY_ASSIGNED_CONTEXT ( ( #180 ) ) GLOBAL_UNIT_ASSIGNED_CONTEXT ( ( #182, #130, #45 ) ) REPRESENTATION_CONTEXT ( 'NONE', 'WORKASPACE' ) );
#175 = DIRECTION ( 'NONE',  ( 0.000000000000000000, 0.000000000000000000, 1.000000000000000000 ) ) ;
#176 = ADVANCED_FACE ( 'NONE', ( #9 ), #141, .F. ) ;
#177 = ORIENTED_EDGE ( 'NONE', *, *, #117, .F. ) ;
#178 = LOCAL_TIME ( 15, 23, 30.00000000000000000, #170 ) ;
#179 = ORIENTED_EDGE ( 'NONE', *, *, #134, .T. ) ;
#180 = UNCERTAINTY_MEASURE_WITH_UNIT (LENGTH_MEASURE( 1.000000000000000082E-05 ), #182, 'distance_accuracy_value', 'NONE');
#181 = PERSON_AND_ORGANIZATION_ROLE ( 'creator' ) ;
#182 =( LENGTH_UNIT ( ) NAMED_UNIT ( * ) SI_UNIT ( .MILLI., .METRE. ) );
#183 = AXIS2_PLACEMENT_3D ( 'NONE', #107, #165, #195 ) ;
#184 = SPHERICAL_SURFACE ( 'NONE', #17, 4000.000000000000000 ) ;
#185 = DIRECTION ( 'NONE',  ( 0.000000000000000000, 0.000000000000000000, 1.000000000000000000 ) ) ;
#186 = APPROVAL ( #67, 'UNSPECIFIED' ) ;
#187 = CYLINDRICAL_SURFACE ( 'NONE', #99, 25.39999999999999858 ) ;
#188 = AXIS2_PLACEMENT_3D ( 'NONE', #60, #108, #10 ) ;
#189 = LOCAL_TIME ( 15, 23, 30.00000000000000000, #111 ) ;
#190 = DIRECTION ( 'NONE',  ( 0.000000000000000000, 0.000000000000000000, 1.000000000000000000 ) ) ;
#191 = CYLINDRICAL_SURFACE ( 'NONE', #104, 25.39999999999999858 ) ;
#192 = DIRECTION ( 'NONE',  ( -0.000000000000000000, -0.000000000000000000, -1.000000000000000000 ) ) ;
#193 = LINE ( 'NONE', #194, #161 ) ;
#194 = CARTESIAN_POINT ( 'NONE',  ( 25.39999999999999858, 3.110602869834276865E-15, 10.00000000000000000 ) ) ;
#195 = DIRECTION ( 'NONE',  ( 1.000000000000000000, 0.000000000000000000, 0.000000000000000000 ) ) ;
#196 = DIRECTION ( 'NONE',  ( 0.000000000000000000, -1.000000000000000000, -0.000000000000000000 ) ) ;
#197 = APPROVAL_ROLE ( '' ) ;
#198 = PERSON_AND_ORGANIZATION ( #3, #25 ) ;
#199 = CC_DESIGN_PERSON_AND_ORGANIZATION_ASSIGNMENT ( #65, #47, ( #158 ) ) ;
#200 = APPROVAL_DATE_TIME ( #62, #13 ) ;
#201 = MECHANICAL_CONTEXT ( 'NONE', #57, 'mechanical' ) ;
ENDSEC;
END-ISO-10303-21;
