ISO-10303-21;
HEADER;
FILE_DESCRIPTION (( 'STEP AP203' ),
    '1' );
FILE_NAME ('010-0522E_N-BK7_PCV_window.STEP',
    '2021-02-25T13:22:36',
    ( '' ),
    ( '' ),
    'SwSTEP 2.0',
    'SolidWorks 2019',
    '' );
FILE_SCHEMA (( 'CONFIG_CONTROL_DESIGN' ));
ENDSEC;

DATA;
#1 = PRODUCT_DEFINITION_FORMATION_WITH_SPECIFIED_SOURCE ( 'ANY', '', #25, .NOT_KNOWN. ) ;
#2 = DATE_TIME_ROLE ( 'creation_date' ) ;
#3 = ORIENTED_EDGE ( 'NONE', *, *, #145, .F. ) ;
#4 = CC_DESIGN_PERSON_AND_ORGANIZATION_ASSIGNMENT ( #192, #15, ( #108 ) ) ;
#5 = ORIENTED_EDGE ( 'NONE', *, *, #74, .F. ) ;
#6 = CARTESIAN_POINT ( 'NONE',  ( 0.000000000000000000, 0.000000000000000000, 0.000000000000000000 ) ) ;
#7 = CARTESIAN_POINT ( 'NONE',  ( 0.000000000000000000, 0.000000000000000000, 10.00000000000000000 ) ) ;
#8 = DIRECTION ( 'NONE',  ( -0.000000000000000000, -0.000000000000000000, -1.000000000000000000 ) ) ;
#9 = DIRECTION ( 'NONE',  ( -0.000000000000000000, -0.000000000000000000, -1.000000000000000000 ) ) ;
#10 = CC_DESIGN_DATE_AND_TIME_ASSIGNMENT ( #77, #189, ( #108 ) ) ;
#11 = AXIS2_PLACEMENT_3D ( 'NONE', #199, #119, #34 ) ;
#12 = ADVANCED_FACE ( 'NONE', ( #188 ), #98, .F. ) ;
#13 = PERSON_AND_ORGANIZATION ( #107, #57 ) ;
#14 = PERSON_AND_ORGANIZATION ( #107, #57 ) ;
#15 = PERSON_AND_ORGANIZATION_ROLE ( 'classification_officer' ) ;
#16 = DATE_AND_TIME ( #131, #176 ) ;
#17 = APPROVAL ( #113, 'UNSPECIFIED' ) ;
#18 = EDGE_LOOP ( 'NONE', ( #42, #60, #193 ) ) ;
#19 = DIRECTION ( 'NONE',  ( 1.000000000000000000, 0.000000000000000000, 0.000000000000000000 ) ) ;
#20 = DIRECTION ( 'NONE',  ( 1.000000000000000000, 0.000000000000000000, -0.000000000000000000 ) ) ;
#21 = CARTESIAN_POINT ( 'NONE',  ( 3.712308238590367182E-13, 0.000000000000000000, 9.999999999999786837 ) ) ;
#22 = DIRECTION ( 'NONE',  ( 0.000000000000000000, 0.000000000000000000, 1.000000000000000000 ) ) ;
#23 = CYLINDRICAL_SURFACE ( 'NONE', #122, 25.39999999999999858 ) ;
#24 = LOCAL_TIME ( 15, 22, 36.00000000000000000, #46 ) ;
#25 = PRODUCT ( '010-0522E_N-BK7_PCV_window', '010-0522E_N-BK7_PCV_window', '', ( #97 ) ) ;
#26 =( NAMED_UNIT ( * ) PLANE_ANGLE_UNIT ( ) SI_UNIT ( $, .RADIAN. ) );
#27 = ORIENTED_EDGE ( 'NONE', *, *, #138, .F. ) ;
#28 = CC_DESIGN_SECURITY_CLASSIFICATION ( #108, ( #1 ) ) ;
#29 = APPROVAL_ROLE ( '' ) ;
#30 = APPLICATION_PROTOCOL_DEFINITION ( 'international standard', 'config_control_design', 1994, #54 ) ;
#31 = VERTEX_POINT ( 'NONE', #117 ) ;
#32 = CIRCLE ( 'NONE', #62, 25.39999999995476543 ) ;
#33 = SPHERICAL_SURFACE ( 'NONE', #86, 2999.999999999999545 ) ;
#34 = DIRECTION ( 'NONE',  ( 0.000000000000000000, 0.000000000000000000, 1.000000000000000000 ) ) ;
#35 = DIRECTION ( 'NONE',  ( 1.000000000000000000, 0.000000000000000000, 0.000000000000000000 ) ) ;
#36 = AXIS2_PLACEMENT_3D ( 'NONE', #178, #103, #20 ) ;
#37 = CC_DESIGN_PERSON_AND_ORGANIZATION_ASSIGNMENT ( #13, #134, ( #1 ) ) ;
#38 = PRODUCT_DEFINITION ( 'UNKNOWN', '', #1, #121 ) ;
#39 = APPROVAL ( #129, 'UNSPECIFIED' ) ;
#40 = ORIENTED_EDGE ( 'NONE', *, *, #53, .T. ) ;
#41 = APPLICATION_PROTOCOL_DEFINITION ( 'international standard', 'config_control_design', 1994, #67 ) ;
#42 = ORIENTED_EDGE ( 'NONE', *, *, #182, .F. ) ;
#43 = PERSON_AND_ORGANIZATION ( #107, #57 ) ;
#44 = ORIENTED_EDGE ( 'NONE', *, *, #116, .T. ) ;
#45 = APPROVAL_DATE_TIME ( #16, #133 ) ;
#46 = COORDINATED_UNIVERSAL_TIME_OFFSET ( 2, 0, .AHEAD. ) ;
#47 = CARTESIAN_POINT ( 'NONE',  ( 3.712308238590367182E-13, 0.000000000000000000, 3009.892471406266850 ) ) ;
#48 = VECTOR ( 'NONE', #136, 1000.000000000000000 ) ;
#49 = DIRECTION ( 'NONE',  ( 1.000000000000000000, 0.000000000000000000, 0.000000000000000000 ) ) ;
#50 = CARTESIAN_POINT ( 'NONE',  ( 3.712308238590367182E-13, 0.000000000000000000, 3009.892471406266850 ) ) ;
#51 = CC_DESIGN_DATE_AND_TIME_ASSIGNMENT ( #80, #2, ( #38 ) ) ;
#52 = DIRECTION ( 'NONE',  ( -1.000000000000000000, 0.000000000000000000, 0.000000000000000000 ) ) ;
#53 = EDGE_CURVE ( 'NONE', #31, #100, #126, .T. ) ;
#54 = APPLICATION_CONTEXT ( 'configuration controlled 3d designs of mechanical parts and assemblies' ) ;
#55 = AXIS2_PLACEMENT_3D ( 'NONE', #168, #177, #132 ) ;
#56 = AXIS2_PLACEMENT_3D ( 'NONE', #147, #8, #84 ) ;
#57 = ORGANIZATION ( 'UNSPECIFIED', 'UNSPECIFIED', '' ) ;
#58 = SECURITY_CLASSIFICATION_LEVEL ( 'unclassified' ) ;
#59 = ADVANCED_FACE ( 'NONE', ( #72 ), #159, .T. ) ;
#60 = ORIENTED_EDGE ( 'NONE', *, *, #53, .F. ) ;
#61 = PERSON_AND_ORGANIZATION ( #107, #57 ) ;
#62 = AXIS2_PLACEMENT_3D ( 'NONE', #21, #88, #49 ) ;
#63 = SHAPE_DEFINITION_REPRESENTATION ( #166, #85 ) ;
#64 = APPROVAL_DATE_TIME ( #190, #39 ) ;
#65 = VERTEX_POINT ( 'NONE', #135 ) ;
#66 = CALENDAR_DATE ( 2021, 25, 2 ) ;
#67 = APPLICATION_CONTEXT ( 'configuration controlled 3d designs of mechanical parts and assemblies' ) ;
#68 = PERSON_AND_ORGANIZATION_ROLE ( 'creator' ) ;
#69 = CIRCLE ( 'NONE', #11, 2999.999999999999091 ) ;
#70 = PLANE ( 'NONE',  #36 ) ;
#71 = DIRECTION ( 'NONE',  ( -1.000000000000000000, 0.000000000000000000, 0.000000000000000000 ) ) ;
#72 = FACE_OUTER_BOUND ( 'NONE', #184, .T. ) ;
#73 = DIRECTION ( 'NONE',  ( 1.000000000000000000, 1.224646799147353207E-16, 0.000000000000000000 ) ) ;
#74 = EDGE_CURVE ( 'NONE', #100, #31, #32, .T. ) ;
#75 = CC_DESIGN_PERSON_AND_ORGANIZATION_ASSIGNMENT ( #171, #174, ( #25 ) ) ;
#76 = CC_DESIGN_APPROVAL ( #17, ( #108 ) ) ;
#77 = DATE_AND_TIME ( #66, #181 ) ;
#78 = COORDINATED_UNIVERSAL_TIME_OFFSET ( 2, 0, .AHEAD. ) ;
#79 = EDGE_LOOP ( 'NONE', ( #5, #128, #3 ) ) ;
#80 = DATE_AND_TIME ( #95, #198 ) ;
#81 = APPROVAL_ROLE ( '' ) ;
#82 = PERSON_AND_ORGANIZATION_ROLE ( 'creator' ) ;
#83 = CARTESIAN_POINT ( 'NONE',  ( 25.39999999999999858, 3.110602869834276865E-15, 10.00000000000000000 ) ) ;
#84 = DIRECTION ( 'NONE',  ( 1.000000000000000000, 0.000000000000000000, 0.000000000000000000 ) ) ;
#85 = ADVANCED_BREP_SHAPE_REPRESENTATION ( '010-0522E_N-BK7_PCV_window', ( #156, #55 ), #164 ) ;
#86 = AXIS2_PLACEMENT_3D ( 'NONE', #50, #101, #105 ) ;
#87 = CARTESIAN_POINT ( 'NONE',  ( -25.39999999999999858, 0.000000000000000000, 0.000000000000000000 ) ) ;
#88 = DIRECTION ( 'NONE',  ( -0.000000000000000000, -0.000000000000000000, -1.000000000000000000 ) ) ;
#89 = FACE_OUTER_BOUND ( 'NONE', #169, .T. ) ;
#90 = CIRCLE ( 'NONE', #186, 25.39999999999999858 ) ;
#91 = CC_DESIGN_APPROVAL ( #133, ( #38 ) ) ;
#92 = CIRCLE ( 'NONE', #139, 2999.999999999999545 ) ;
#93 = CC_DESIGN_PERSON_AND_ORGANIZATION_ASSIGNMENT ( #43, #68, ( #1 ) ) ;
#94 = APPROVAL_PERSON_ORGANIZATION ( #158, #17, #81 ) ;
#95 = CALENDAR_DATE ( 2021, 25, 2 ) ;
#96 = APPROVAL_DATE_TIME ( #170, #17 ) ;
#97 = MECHANICAL_CONTEXT ( 'NONE', #67, 'mechanical' ) ;
#98 = SPHERICAL_SURFACE ( 'NONE', #130, 2999.999999999999545 ) ;
#99 = PRODUCT_RELATED_PRODUCT_CATEGORY ( 'detail', '', ( #25 ) ) ;
#100 = VERTEX_POINT ( 'NONE', #200 ) ;
#101 = DIRECTION ( 'NONE',  ( 0.000000000000000000, -1.000000000000000000, -0.000000000000000000 ) ) ;
#102 = ADVANCED_FACE ( 'NONE', ( #195 ), #33, .F. ) ;
#103 = DIRECTION ( 'NONE',  ( 0.000000000000000000, 0.000000000000000000, 1.000000000000000000 ) ) ;
#104 = AXIS2_PLACEMENT_3D ( 'NONE', #6, #179, #160 ) ;
#105 = DIRECTION ( 'NONE',  ( 1.000000000000000000, 0.000000000000000000, 0.000000000000000000 ) ) ;
#106 = CARTESIAN_POINT ( 'NONE',  ( 25.39999999999999858, 3.110602869834276865E-15, 0.000000000000000000 ) ) ;
#107 = PERSON ( 'UNSPECIFIED', 'UNSPECIFIED', 'UNSPECIFIED', ('UNSPECIFIED'), ('UNSPECIFIED'), ('UNSPECIFIED') ) ;
#108 = SECURITY_CLASSIFICATION ( '', '', #58 ) ;
#109 = EDGE_CURVE ( 'NONE', #196, #157, #90, .T. ) ;
#110 = VECTOR ( 'NONE', #152, 1000.000000000000000 ) ;
#111 = ORIENTED_EDGE ( 'NONE', *, *, #74, .T. ) ;
#112 = PERSON_AND_ORGANIZATION ( #107, #57 ) ;
#113 = APPROVAL_STATUS ( 'not_yet_approved' ) ;
#114 = COORDINATED_UNIVERSAL_TIME_OFFSET ( 2, 0, .AHEAD. ) ;
#115 = ORIENTED_EDGE ( 'NONE', *, *, #109, .T. ) ;
#116 = EDGE_CURVE ( 'NONE', #157, #196, #124, .T. ) ;
#117 = CARTESIAN_POINT ( 'NONE',  ( 25.39999999995513491, 3.110602869831530446E-15, 9.999999999999786837 ) ) ;
#118 = LOCAL_TIME ( 15, 22, 36.00000000000000000, #143 ) ;
#119 = DIRECTION ( 'NONE',  ( 0.000000000000000000, 1.000000000000000000, -0.000000000000000000 ) ) ;
#120 = DIRECTION ( 'NONE',  ( -0.000000000000000000, -0.000000000000000000, -1.000000000000000000 ) ) ;
#121 = DESIGN_CONTEXT ( 'detailed design', #54, 'design' ) ;
#122 = AXIS2_PLACEMENT_3D ( 'NONE', #151, #9, #52 ) ;
#123 = CARTESIAN_POINT ( 'NONE',  ( -25.39999999999999858, 0.000000000000000000, 10.00000000000000000 ) ) ;
#124 = CIRCLE ( 'NONE', #104, 25.39999999999999858 ) ;
#125 = CC_DESIGN_APPROVAL ( #39, ( #1 ) ) ;
#126 = CIRCLE ( 'NONE', #56, 25.39999999995476543 ) ;
#127 =( LENGTH_UNIT ( ) NAMED_UNIT ( * ) SI_UNIT ( .MILLI., .METRE. ) );
#128 = ORIENTED_EDGE ( 'NONE', *, *, #182, .T. ) ;
#129 = APPROVAL_STATUS ( 'not_yet_approved' ) ;
#130 = AXIS2_PLACEMENT_3D ( 'NONE', #47, #149, #35 ) ;
#131 = CALENDAR_DATE ( 2021, 25, 2 ) ;
#132 = DIRECTION ( 'NONE',  ( 1.000000000000000000, 0.000000000000000000, 0.000000000000000000 ) ) ;
#133 = APPROVAL ( #142, 'UNSPECIFIED' ) ;
#134 = PERSON_AND_ORGANIZATION_ROLE ( 'design_supplier' ) ;
#135 = CARTESIAN_POINT ( 'NONE',  ( 5.549278437311396424E-13, 0.000000000000000000, 9.892471406267144829 ) ) ;
#136 = DIRECTION ( 'NONE',  ( -0.000000000000000000, -0.000000000000000000, -1.000000000000000000 ) ) ;
#137 = DIRECTION ( 'NONE',  ( 1.224646799147353207E-16, -1.000000000000000000, 0.000000000000000000 ) ) ;
#138 = EDGE_CURVE ( 'NONE', #31, #196, #197, .T. ) ;
#139 = AXIS2_PLACEMENT_3D ( 'NONE', #162, #137, #73 ) ;
#140 = CLOSED_SHELL ( 'NONE', ( #12, #59, #201, #153, #102 ) ) ;
#141 = CALENDAR_DATE ( 2021, 25, 2 ) ;
#142 = APPROVAL_STATUS ( 'not_yet_approved' ) ;
#143 = COORDINATED_UNIVERSAL_TIME_OFFSET ( 2, 0, .AHEAD. ) ;
#144 = ORIENTED_EDGE ( 'NONE', *, *, #163, .T. ) ;
#145 = EDGE_CURVE ( 'NONE', #31, #65, #69, .T. ) ;
#146 = FACE_OUTER_BOUND ( 'NONE', #191, .T. ) ;
#147 = CARTESIAN_POINT ( 'NONE',  ( 3.712308238590367182E-13, 0.000000000000000000, 9.999999999999786837 ) ) ;
#148 = LINE ( 'NONE', #123, #110 ) ;
#149 = DIRECTION ( 'NONE',  ( 0.000000000000000000, -1.000000000000000000, -0.000000000000000000 ) ) ;
#150 = APPROVAL_PERSON_ORGANIZATION ( #112, #133, #29 ) ;
#151 = CARTESIAN_POINT ( 'NONE',  ( 0.000000000000000000, 0.000000000000000000, 10.00000000000000000 ) ) ;
#152 = DIRECTION ( 'NONE',  ( -0.000000000000000000, -0.000000000000000000, -1.000000000000000000 ) ) ;
#153 = ADVANCED_FACE ( 'NONE', ( #146 ), #70, .F. ) ;
#154 = ORIENTED_EDGE ( 'NONE', *, *, #138, .T. ) ;
#155 = APPROVAL_ROLE ( '' ) ;
#156 = MANIFOLD_SOLID_BREP ( 'Cut-Revolve1', #140 ) ;
#157 = VERTEX_POINT ( 'NONE', #87 ) ;
#158 = PERSON_AND_ORGANIZATION ( #107, #57 ) ;
#159 = CYLINDRICAL_SURFACE ( 'NONE', #175, 25.39999999999999858 ) ;
#160 = DIRECTION ( 'NONE',  ( 1.000000000000000000, 0.000000000000000000, 0.000000000000000000 ) ) ;
#161 = CARTESIAN_POINT ( 'NONE',  ( 0.000000000000000000, 0.000000000000000000, 0.000000000000000000 ) ) ;
#162 = CARTESIAN_POINT ( 'NONE',  ( 3.712308238590367182E-13, 0.000000000000000000, 3009.892471406266850 ) ) ;
#163 = EDGE_CURVE ( 'NONE', #100, #157, #148, .T. ) ;
#164 =( GEOMETRIC_REPRESENTATION_CONTEXT ( 3 ) GLOBAL_UNCERTAINTY_ASSIGNED_CONTEXT ( ( #180 ) ) GLOBAL_UNIT_ASSIGNED_CONTEXT ( ( #127, #26, #183 ) ) REPRESENTATION_CONTEXT ( 'NONE', 'WORKASPACE' ) );
#165 = APPROVAL_PERSON_ORGANIZATION ( #61, #39, #155 ) ;
#166 = PRODUCT_DEFINITION_SHAPE ( 'NONE', 'NONE',  #38 ) ;
#167 = ORIENTED_EDGE ( 'NONE', *, *, #109, .F. ) ;
#168 = CARTESIAN_POINT ( 'NONE',  ( 0.000000000000000000, 0.000000000000000000, 0.000000000000000000 ) ) ;
#169 = EDGE_LOOP ( 'NONE', ( #27, #40, #144, #44 ) ) ;
#170 = DATE_AND_TIME ( #141, #24 ) ;
#171 = PERSON_AND_ORGANIZATION ( #107, #57 ) ;
#172 = ORIENTED_EDGE ( 'NONE', *, *, #116, .F. ) ;
#173 = COORDINATED_UNIVERSAL_TIME_OFFSET ( 2, 0, .AHEAD. ) ;
#174 = PERSON_AND_ORGANIZATION_ROLE ( 'design_owner' ) ;
#175 = AXIS2_PLACEMENT_3D ( 'NONE', #7, #120, #71 ) ;
#176 = LOCAL_TIME ( 15, 22, 36.00000000000000000, #114 ) ;
#177 = DIRECTION ( 'NONE',  ( 0.000000000000000000, 0.000000000000000000, 1.000000000000000000 ) ) ;
#178 = CARTESIAN_POINT ( 'NONE',  ( 0.000000000000000000, 0.000000000000000000, 0.000000000000000000 ) ) ;
#179 = DIRECTION ( 'NONE',  ( 0.000000000000000000, 0.000000000000000000, 1.000000000000000000 ) ) ;
#180 = UNCERTAINTY_MEASURE_WITH_UNIT (LENGTH_MEASURE( 1.000000000000000082E-05 ), #127, 'distance_accuracy_value', 'NONE');
#181 = LOCAL_TIME ( 15, 22, 36.00000000000000000, #173 ) ;
#182 = EDGE_CURVE ( 'NONE', #100, #65, #92, .T. ) ;
#183 =( NAMED_UNIT ( * ) SI_UNIT ( $, .STERADIAN. ) SOLID_ANGLE_UNIT ( ) );
#184 = EDGE_LOOP ( 'NONE', ( #111, #154, #115, #185 ) ) ;
#185 = ORIENTED_EDGE ( 'NONE', *, *, #163, .F. ) ;
#186 = AXIS2_PLACEMENT_3D ( 'NONE', #161, #22, #19 ) ;
#187 = CALENDAR_DATE ( 2021, 25, 2 ) ;
#188 = FACE_OUTER_BOUND ( 'NONE', #79, .T. ) ;
#189 = DATE_TIME_ROLE ( 'classification_date' ) ;
#190 = DATE_AND_TIME ( #187, #118 ) ;
#191 = EDGE_LOOP ( 'NONE', ( #172, #167 ) ) ;
#192 = PERSON_AND_ORGANIZATION ( #107, #57 ) ;
#193 = ORIENTED_EDGE ( 'NONE', *, *, #145, .T. ) ;
#194 = CC_DESIGN_PERSON_AND_ORGANIZATION_ASSIGNMENT ( #14, #82, ( #38 ) ) ;
#195 = FACE_OUTER_BOUND ( 'NONE', #18, .T. ) ;
#196 = VERTEX_POINT ( 'NONE', #106 ) ;
#197 = LINE ( 'NONE', #83, #48 ) ;
#198 = LOCAL_TIME ( 15, 22, 36.00000000000000000, #78 ) ;
#199 = CARTESIAN_POINT ( 'NONE',  ( 3.712308238590367182E-13, 0.000000000000000000, 3009.892471406266850 ) ) ;
#200 = CARTESIAN_POINT ( 'NONE',  ( -25.39999999995439239, 0.000000000000000000, 9.999999999999786837 ) ) ;
#201 = ADVANCED_FACE ( 'NONE', ( #89 ), #23, .T. ) ;
ENDSEC;
END-ISO-10303-21;
