ISO-10303-21;
HEADER;
FILE_DESCRIPTION (( 'STEP AP203' ),
    '1' );
FILE_NAME ('010-0521E_N-BK7_PCV_window.STEP',
    '2021-02-25T13:21:53',
    ( '' ),
    ( '' ),
    'SwSTEP 2.0',
    'SolidWorks 2019',
    '' );
FILE_SCHEMA (( 'CONFIG_CONTROL_DESIGN' ));
ENDSEC;

DATA;
#1 = PERSON_AND_ORGANIZATION_ROLE ( 'creator' ) ;
#2 = ORIENTED_EDGE ( 'NONE', *, *, #72, .F. ) ;
#3 = ADVANCED_FACE ( 'NONE', ( #174 ), #172, .F. ) ;
#4 = DIRECTION ( 'NONE',  ( 0.000000000000000000, -1.000000000000000000, -0.000000000000000000 ) ) ;
#5 = FACE_OUTER_BOUND ( 'NONE', #112, .T. ) ;
#6 = CARTESIAN_POINT ( 'NONE',  ( -25.39999999998942570, 0.000000000000000000, 9.999999999999786837 ) ) ;
#7 = ADVANCED_FACE ( 'NONE', ( #115 ), #193, .T. ) ;
#8 = VERTEX_POINT ( 'NONE', #76 ) ;
#9 = CC_DESIGN_SECURITY_CLASSIFICATION ( #22, ( #40 ) ) ;
#10 = CALENDAR_DATE ( 2021, 25, 2 ) ;
#11 = ADVANCED_FACE ( 'NONE', ( #197 ), #143, .F. ) ;
#12 = COORDINATED_UNIVERSAL_TIME_OFFSET ( 2, 0, .AHEAD. ) ;
#13 = CALENDAR_DATE ( 2021, 25, 2 ) ;
#14 = AXIS2_PLACEMENT_3D ( 'NONE', #88, #26, #103 ) ;
#15 = APPLICATION_CONTEXT ( 'configuration controlled 3d designs of mechanical parts and assemblies' ) ;
#16 = CC_DESIGN_PERSON_AND_ORGANIZATION_ASSIGNMENT ( #109, #167, ( #40 ) ) ;
#17 = APPROVAL_ROLE ( '' ) ;
#18 = CIRCLE ( 'NONE', #49, 25.39999999999999858 ) ;
#19 = UNCERTAINTY_MEASURE_WITH_UNIT (LENGTH_MEASURE( 1.000000000000000082E-05 ), #160, 'distance_accuracy_value', 'NONE');
#20 = ORIENTED_EDGE ( 'NONE', *, *, #135, .F. ) ;
#21 = ORIENTED_EDGE ( 'NONE', *, *, #72, .T. ) ;
#22 = SECURITY_CLASSIFICATION ( '', '', #120 ) ;
#23 = ORIENTED_EDGE ( 'NONE', *, *, #44, .F. ) ;
#24 = CARTESIAN_POINT ( 'NONE',  ( -25.39999999999999858, 0.000000000000000000, 10.00000000000000000 ) ) ;
#25 = CIRCLE ( 'NONE', #189, 2500.000000000000455 ) ;
#26 = DIRECTION ( 'NONE',  ( -0.000000000000000000, -0.000000000000000000, -1.000000000000000000 ) ) ;
#27 = CARTESIAN_POINT ( 'NONE',  ( 3.087807787238716628E-13, 0.000000000000000000, 2509.870964669976729 ) ) ;
#28 = DIRECTION ( 'NONE',  ( 0.000000000000000000, 0.000000000000000000, 1.000000000000000000 ) ) ;
#29 = DIRECTION ( 'NONE',  ( 1.224646799147353207E-16, -1.000000000000000000, 0.000000000000000000 ) ) ;
#30 = APPROVAL_PERSON_ORGANIZATION ( #119, #36, #17 ) ;
#31 = APPROVAL_DATE_TIME ( #48, #36 ) ;
#32 = PERSON_AND_ORGANIZATION ( #51, #134 ) ;
#33 = MECHANICAL_CONTEXT ( 'NONE', #15, 'mechanical' ) ;
#34 = APPROVAL_PERSON_ORGANIZATION ( #65, #67, #81 ) ;
#35 = DATE_TIME_ROLE ( 'classification_date' ) ;
#36 = APPROVAL ( #95, 'UNSPECIFIED' ) ;
#37 =( GEOMETRIC_REPRESENTATION_CONTEXT ( 3 ) GLOBAL_UNCERTAINTY_ASSIGNED_CONTEXT ( ( #19 ) ) GLOBAL_UNIT_ASSIGNED_CONTEXT ( ( #160, #166, #168 ) ) REPRESENTATION_CONTEXT ( 'NONE', 'WORKASPACE' ) );
#38 = ORIENTED_EDGE ( 'NONE', *, *, #149, .F. ) ;
#39 = EDGE_LOOP ( 'NONE', ( #124, #21, #97, #38 ) ) ;
#40 = PRODUCT_DEFINITION_FORMATION_WITH_SPECIFIED_SOURCE ( 'ANY', '', #201, .NOT_KNOWN. ) ;
#41 = CARTESIAN_POINT ( 'NONE',  ( 0.000000000000000000, 0.000000000000000000, 10.00000000000000000 ) ) ;
#42 = ADVANCED_BREP_SHAPE_REPRESENTATION ( '010-0521E_N-BK7_PCV_window', ( #144, #55 ), #37 ) ;
#43 = CARTESIAN_POINT ( 'NONE',  ( 3.087807787238716628E-13, 0.000000000000000000, 2509.870964669976729 ) ) ;
#44 = EDGE_CURVE ( 'NONE', #8, #186, #18, .T. ) ;
#45 = SPHERICAL_SURFACE ( 'NONE', #59, 2500.000000000000000 ) ;
#46 = DIRECTION ( 'NONE',  ( 1.000000000000000000, 1.224646799147353207E-16, 0.000000000000000000 ) ) ;
#47 = CARTESIAN_POINT ( 'NONE',  ( 3.087807787238716628E-13, 0.000000000000000000, 2509.870964669976729 ) ) ;
#48 = DATE_AND_TIME ( #180, #185 ) ;
#49 = AXIS2_PLACEMENT_3D ( 'NONE', #118, #28, #99 ) ;
#50 = PERSON_AND_ORGANIZATION ( #51, #134 ) ;
#51 = PERSON ( 'UNSPECIFIED', 'UNSPECIFIED', 'UNSPECIFIED', ('UNSPECIFIED'), ('UNSPECIFIED'), ('UNSPECIFIED') ) ;
#52 = EDGE_CURVE ( 'NONE', #96, #84, #100, .T. ) ;
#53 = DIRECTION ( 'NONE',  ( 1.000000000000000000, 0.000000000000000000, 0.000000000000000000 ) ) ;
#54 = PRODUCT_DEFINITION_SHAPE ( 'NONE', 'NONE',  #89 ) ;
#55 = AXIS2_PLACEMENT_3D ( 'NONE', #182, #199, #53 ) ;
#56 = DATE_AND_TIME ( #183, #157 ) ;
#57 = ORIENTED_EDGE ( 'NONE', *, *, #52, .F. ) ;
#58 = ORIENTED_EDGE ( 'NONE', *, *, #149, .T. ) ;
#59 = AXIS2_PLACEMENT_3D ( 'NONE', #47, #4, #164 ) ;
#60 = DIRECTION ( 'NONE',  ( 0.000000000000000000, 0.000000000000000000, 1.000000000000000000 ) ) ;
#61 = LOCAL_TIME ( 15, 21, 53.00000000000000000, #147 ) ;
#62 = DIRECTION ( 'NONE',  ( 1.000000000000000000, 0.000000000000000000, -0.000000000000000000 ) ) ;
#63 = APPROVAL_ROLE ( '' ) ;
#64 = PERSON_AND_ORGANIZATION ( #51, #134 ) ;
#65 = PERSON_AND_ORGANIZATION ( #51, #134 ) ;
#66 = APPROVAL_DATE_TIME ( #150, #191 ) ;
#67 = APPROVAL ( #79, 'UNSPECIFIED' ) ;
#68 = EDGE_LOOP ( 'NONE', ( #2, #156, #58, #85 ) ) ;
#69 = EDGE_LOOP ( 'NONE', ( #57, #82, #155 ) ) ;
#70 = DIRECTION ( 'NONE',  ( 1.000000000000000000, 0.000000000000000000, 0.000000000000000000 ) ) ;
#71 = AXIS2_PLACEMENT_3D ( 'NONE', #101, #139, #70 ) ;
#72 = EDGE_CURVE ( 'NONE', #136, #8, #177, .T. ) ;
#73 = DIRECTION ( 'NONE',  ( 0.000000000000000000, -1.000000000000000000, -0.000000000000000000 ) ) ;
#74 = FACE_OUTER_BOUND ( 'NONE', #39, .T. ) ;
#75 = DIRECTION ( 'NONE',  ( 0.000000000000000000, 0.000000000000000000, 1.000000000000000000 ) ) ;
#76 = CARTESIAN_POINT ( 'NONE',  ( 25.39999999999999858, 3.110602869834276865E-15, 0.000000000000000000 ) ) ;
#77 = DATE_AND_TIME ( #10, #108 ) ;
#78 = SHAPE_DEFINITION_REPRESENTATION ( #54, #42 ) ;
#79 = APPROVAL_STATUS ( 'not_yet_approved' ) ;
#80 = AXIS2_PLACEMENT_3D ( 'NONE', #41, #114, #90 ) ;
#81 = APPROVAL_ROLE ( '' ) ;
#82 = ORIENTED_EDGE ( 'NONE', *, *, #173, .F. ) ;
#83 = EDGE_CURVE ( 'NONE', #96, #136, #181, .T. ) ;
#84 = VERTEX_POINT ( 'NONE', #116 ) ;
#85 = ORIENTED_EDGE ( 'NONE', *, *, #135, .T. ) ;
#86 = DIRECTION ( 'NONE',  ( 0.000000000000000000, 0.000000000000000000, 1.000000000000000000 ) ) ;
#87 = AXIS2_PLACEMENT_3D ( 'NONE', #162, #75, #62 ) ;
#88 = CARTESIAN_POINT ( 'NONE',  ( 3.087807787238716628E-13, 0.000000000000000000, 9.999999999999786837 ) ) ;
#89 = PRODUCT_DEFINITION ( 'UNKNOWN', '', #40, #188 ) ;
#90 = DIRECTION ( 'NONE',  ( -1.000000000000000000, 0.000000000000000000, 0.000000000000000000 ) ) ;
#91 = DIRECTION ( 'NONE',  ( 0.000000000000000000, 1.000000000000000000, -0.000000000000000000 ) ) ;
#92 = PERSON_AND_ORGANIZATION_ROLE ( 'creator' ) ;
#93 = CALENDAR_DATE ( 2021, 25, 2 ) ;
#94 = APPLICATION_PROTOCOL_DEFINITION ( 'international standard', 'config_control_design', 1994, #158 ) ;
#95 = APPROVAL_STATUS ( 'not_yet_approved' ) ;
#96 = VERTEX_POINT ( 'NONE', #6 ) ;
#97 = ORIENTED_EDGE ( 'NONE', *, *, #44, .T. ) ;
#98 = CC_DESIGN_APPROVAL ( #36, ( #22 ) ) ;
#99 = DIRECTION ( 'NONE',  ( 1.000000000000000000, 0.000000000000000000, 0.000000000000000000 ) ) ;
#100 = CIRCLE ( 'NONE', #161, 2500.000000000000000 ) ;
#101 = CARTESIAN_POINT ( 'NONE',  ( 3.087807787238716628E-13, 0.000000000000000000, 9.999999999999786837 ) ) ;
#102 = DIRECTION ( 'NONE',  ( -0.000000000000000000, -0.000000000000000000, -1.000000000000000000 ) ) ;
#103 = DIRECTION ( 'NONE',  ( 1.000000000000000000, 0.000000000000000000, 0.000000000000000000 ) ) ;
#104 = AXIS2_PLACEMENT_3D ( 'NONE', #179, #117, #126 ) ;
#105 = CC_DESIGN_PERSON_AND_ORGANIZATION_ASSIGNMENT ( #50, #1, ( #40 ) ) ;
#106 = PERSON_AND_ORGANIZATION ( #51, #134 ) ;
#107 = APPROVAL_DATE_TIME ( #56, #67 ) ;
#108 = LOCAL_TIME ( 15, 21, 53.00000000000000000, #148 ) ;
#109 = PERSON_AND_ORGANIZATION ( #51, #134 ) ;
#110 = VECTOR ( 'NONE', #102, 1000.000000000000000 ) ;
#111 = CC_DESIGN_PERSON_AND_ORGANIZATION_ASSIGNMENT ( #32, #151, ( #201 ) ) ;
#112 = EDGE_LOOP ( 'NONE', ( #142, #137, #187 ) ) ;
#113 = LOCAL_TIME ( 15, 21, 53.00000000000000000, #12 ) ;
#114 = DIRECTION ( 'NONE',  ( -0.000000000000000000, -0.000000000000000000, -1.000000000000000000 ) ) ;
#115 = FACE_OUTER_BOUND ( 'NONE', #68, .T. ) ;
#116 = CARTESIAN_POINT ( 'NONE',  ( 4.618616286172907495E-13, 0.000000000000000000, 9.870964669976611816 ) ) ;
#117 = DIRECTION ( 'NONE',  ( -0.000000000000000000, -0.000000000000000000, -1.000000000000000000 ) ) ;
#118 = CARTESIAN_POINT ( 'NONE',  ( 0.000000000000000000, 0.000000000000000000, 0.000000000000000000 ) ) ;
#119 = PERSON_AND_ORGANIZATION ( #51, #134 ) ;
#120 = SECURITY_CLASSIFICATION_LEVEL ( 'unclassified' ) ;
#121 = COORDINATED_UNIVERSAL_TIME_OFFSET ( 2, 0, .AHEAD. ) ;
#122 = CLOSED_SHELL ( 'NONE', ( #165, #123, #7, #11, #3 ) ) ;
#123 = ADVANCED_FACE ( 'NONE', ( #74 ), #175, .T. ) ;
#124 = ORIENTED_EDGE ( 'NONE', *, *, #83, .T. ) ;
#125 = CARTESIAN_POINT ( 'NONE',  ( -25.39999999999999858, 0.000000000000000000, 0.000000000000000000 ) ) ;
#126 = DIRECTION ( 'NONE',  ( -1.000000000000000000, 0.000000000000000000, 0.000000000000000000 ) ) ;
#127 = CARTESIAN_POINT ( 'NONE',  ( 0.000000000000000000, 0.000000000000000000, 0.000000000000000000 ) ) ;
#128 = APPROVAL_PERSON_ORGANIZATION ( #106, #191, #63 ) ;
#129 = CC_DESIGN_PERSON_AND_ORGANIZATION_ASSIGNMENT ( #184, #92, ( #89 ) ) ;
#130 = APPROVAL_STATUS ( 'not_yet_approved' ) ;
#131 = AXIS2_PLACEMENT_3D ( 'NONE', #127, #60, #159 ) ;
#132 = APPLICATION_PROTOCOL_DEFINITION ( 'international standard', 'config_control_design', 1994, #15 ) ;
#133 = DATE_AND_TIME ( #13, #113 ) ;
#134 = ORGANIZATION ( 'UNSPECIFIED', 'UNSPECIFIED', '' ) ;
#135 = EDGE_CURVE ( 'NONE', #186, #8, #170, .T. ) ;
#136 = VERTEX_POINT ( 'NONE', #140 ) ;
#137 = ORIENTED_EDGE ( 'NONE', *, *, #52, .T. ) ;
#138 = CC_DESIGN_APPROVAL ( #67, ( #40 ) ) ;
#139 = DIRECTION ( 'NONE',  ( -0.000000000000000000, -0.000000000000000000, -1.000000000000000000 ) ) ;
#140 = CARTESIAN_POINT ( 'NONE',  ( 25.39999999999004032, 3.110602869833667470E-15, 9.999999999999786837 ) ) ;
#141 = CIRCLE ( 'NONE', #71, 25.39999999998973124 ) ;
#142 = ORIENTED_EDGE ( 'NONE', *, *, #83, .F. ) ;
#143 = PLANE ( 'NONE',  #87 ) ;
#144 = MANIFOLD_SOLID_BREP ( 'Cut-Revolve1', #122 ) ;
#145 = DIRECTION ( 'NONE',  ( 1.000000000000000000, 0.000000000000000000, 0.000000000000000000 ) ) ;
#146 = PERSON_AND_ORGANIZATION_ROLE ( 'classification_officer' ) ;
#147 = COORDINATED_UNIVERSAL_TIME_OFFSET ( 2, 0, .AHEAD. ) ;
#148 = COORDINATED_UNIVERSAL_TIME_OFFSET ( 2, 0, .AHEAD. ) ;
#149 = EDGE_CURVE ( 'NONE', #96, #186, #194, .T. ) ;
#150 = DATE_AND_TIME ( #93, #61 ) ;
#151 = PERSON_AND_ORGANIZATION_ROLE ( 'design_owner' ) ;
#152 = EDGE_CURVE ( 'NONE', #136, #84, #25, .T. ) ;
#153 = VECTOR ( 'NONE', #163, 1000.000000000000000 ) ;
#154 = CC_DESIGN_PERSON_AND_ORGANIZATION_ASSIGNMENT ( #64, #146, ( #22 ) ) ;
#155 = ORIENTED_EDGE ( 'NONE', *, *, #152, .T. ) ;
#156 = ORIENTED_EDGE ( 'NONE', *, *, #173, .T. ) ;
#157 = LOCAL_TIME ( 15, 21, 53.00000000000000000, #121 ) ;
#158 = APPLICATION_CONTEXT ( 'configuration controlled 3d designs of mechanical parts and assemblies' ) ;
#159 = DIRECTION ( 'NONE',  ( 1.000000000000000000, 0.000000000000000000, 0.000000000000000000 ) ) ;
#160 =( LENGTH_UNIT ( ) NAMED_UNIT ( * ) SI_UNIT ( .MILLI., .METRE. ) );
#161 = AXIS2_PLACEMENT_3D ( 'NONE', #43, #29, #46 ) ;
#162 = CARTESIAN_POINT ( 'NONE',  ( 0.000000000000000000, 0.000000000000000000, 0.000000000000000000 ) ) ;
#163 = DIRECTION ( 'NONE',  ( -0.000000000000000000, -0.000000000000000000, -1.000000000000000000 ) ) ;
#164 = DIRECTION ( 'NONE',  ( 1.000000000000000000, 0.000000000000000000, 0.000000000000000000 ) ) ;
#165 = ADVANCED_FACE ( 'NONE', ( #5 ), #45, .F. ) ;
#166 =( NAMED_UNIT ( * ) PLANE_ANGLE_UNIT ( ) SI_UNIT ( $, .RADIAN. ) );
#167 = PERSON_AND_ORGANIZATION_ROLE ( 'design_supplier' ) ;
#168 =( NAMED_UNIT ( * ) SI_UNIT ( $, .STERADIAN. ) SOLID_ANGLE_UNIT ( ) );
#169 = CC_DESIGN_DATE_AND_TIME_ASSIGNMENT ( #133, #200, ( #89 ) ) ;
#170 = CIRCLE ( 'NONE', #131, 25.39999999999999858 ) ;
#171 = PRODUCT_RELATED_PRODUCT_CATEGORY ( 'detail', '', ( #201 ) ) ;
#172 = SPHERICAL_SURFACE ( 'NONE', #178, 2500.000000000000000 ) ;
#173 = EDGE_CURVE ( 'NONE', #136, #96, #141, .T. ) ;
#174 = FACE_OUTER_BOUND ( 'NONE', #69, .T. ) ;
#175 = CYLINDRICAL_SURFACE ( 'NONE', #104, 25.39999999999999858 ) ;
#176 = CC_DESIGN_DATE_AND_TIME_ASSIGNMENT ( #77, #35, ( #22 ) ) ;
#177 = LINE ( 'NONE', #192, #110 ) ;
#178 = AXIS2_PLACEMENT_3D ( 'NONE', #27, #73, #145 ) ;
#179 = CARTESIAN_POINT ( 'NONE',  ( 0.000000000000000000, 0.000000000000000000, 10.00000000000000000 ) ) ;
#180 = CALENDAR_DATE ( 2021, 25, 2 ) ;
#181 = CIRCLE ( 'NONE', #14, 25.39999999998973124 ) ;
#182 = CARTESIAN_POINT ( 'NONE',  ( 0.000000000000000000, 0.000000000000000000, 0.000000000000000000 ) ) ;
#183 = CALENDAR_DATE ( 2021, 25, 2 ) ;
#184 = PERSON_AND_ORGANIZATION ( #51, #134 ) ;
#185 = LOCAL_TIME ( 15, 21, 53.00000000000000000, #198 ) ;
#186 = VERTEX_POINT ( 'NONE', #125 ) ;
#187 = ORIENTED_EDGE ( 'NONE', *, *, #152, .F. ) ;
#188 = DESIGN_CONTEXT ( 'detailed design', #158, 'design' ) ;
#189 = AXIS2_PLACEMENT_3D ( 'NONE', #195, #91, #86 ) ;
#190 = EDGE_LOOP ( 'NONE', ( #20, #23 ) ) ;
#191 = APPROVAL ( #130, 'UNSPECIFIED' ) ;
#192 = CARTESIAN_POINT ( 'NONE',  ( 25.39999999999999858, 3.110602869834276865E-15, 10.00000000000000000 ) ) ;
#193 = CYLINDRICAL_SURFACE ( 'NONE', #80, 25.39999999999999858 ) ;
#194 = LINE ( 'NONE', #24, #153 ) ;
#195 = CARTESIAN_POINT ( 'NONE',  ( 3.087807787238716628E-13, 0.000000000000000000, 2509.870964669976729 ) ) ;
#196 = CC_DESIGN_APPROVAL ( #191, ( #89 ) ) ;
#197 = FACE_OUTER_BOUND ( 'NONE', #190, .T. ) ;
#198 = COORDINATED_UNIVERSAL_TIME_OFFSET ( 2, 0, .AHEAD. ) ;
#199 = DIRECTION ( 'NONE',  ( 0.000000000000000000, 0.000000000000000000, 1.000000000000000000 ) ) ;
#200 = DATE_TIME_ROLE ( 'creation_date' ) ;
#201 = PRODUCT ( '010-0521E_N-BK7_PCV_window', '010-0521E_N-BK7_PCV_window', '', ( #33 ) ) ;
ENDSEC;
END-ISO-10303-21;
