ISO-10303-21;
HEADER;
FILE_DESCRIPTION (( 'STEP AP203' ),
    '1' );
FILE_NAME ('010-0520E_N-BK7_PCV_window.STEP',
    '2021-02-25T13:21:11',
    ( '' ),
    ( '' ),
    'SwSTEP 2.0',
    'SolidWorks 2019',
    '' );
FILE_SCHEMA (( 'CONFIG_CONTROL_DESIGN' ));
ENDSEC;

DATA;
#1 = CC_DESIGN_DATE_AND_TIME_ASSIGNMENT ( #25, #177, ( #161 ) ) ;
#2 = AXIS2_PLACEMENT_3D ( 'NONE', #50, #111, #155 ) ;
#3 = CC_DESIGN_PERSON_AND_ORGANIZATION_ASSIGNMENT ( #184, #181, ( #179 ) ) ;
#4 = CIRCLE ( 'NONE', #94, 25.40000000002469704 ) ;
#5 = CARTESIAN_POINT ( 'NONE',  ( 2.498001805406602216E-13, 0.000000000000000000, 10.00000000000000888 ) ) ;
#6 = PERSON_AND_ORGANIZATION_ROLE ( 'creator' ) ;
#7 = LOCAL_TIME ( 15, 21, 11.00000000000000000, #60 ) ;
#8 = DIRECTION ( 'NONE',  ( 0.000000000000000000, -1.000000000000000000, -0.000000000000000000 ) ) ;
#9 = PERSON_AND_ORGANIZATION ( #20, #70 ) ;
#10 = PRODUCT_DEFINITION_SHAPE ( 'NONE', 'NONE',  #161 ) ;
#11 = DIRECTION ( 'NONE',  ( 1.000000000000000000, 0.000000000000000000, 0.000000000000000000 ) ) ;
#12 = DATE_AND_TIME ( #108, #7 ) ;
#13 = CARTESIAN_POINT ( 'NONE',  ( 25.39999999999999858, 3.110602869834276865E-15, 0.000000000000000000 ) ) ;
#14 = EDGE_LOOP ( 'NONE', ( #83, #16 ) ) ;
#15 =( LENGTH_UNIT ( ) NAMED_UNIT ( * ) SI_UNIT ( .MILLI., .METRE. ) );
#16 = ORIENTED_EDGE ( 'NONE', *, *, #102, .F. ) ;
#17 = ORIENTED_EDGE ( 'NONE', *, *, #34, .F. ) ;
#18 = CC_DESIGN_DATE_AND_TIME_ASSIGNMENT ( #12, #77, ( #45 ) ) ;
#19 = AXIS2_PLACEMENT_3D ( 'NONE', #158, #107, #11 ) ;
#20 = PERSON ( 'UNSPECIFIED', 'UNSPECIFIED', 'UNSPECIFIED', ('UNSPECIFIED'), ('UNSPECIFIED'), ('UNSPECIFIED') ) ;
#21 = CALENDAR_DATE ( 2021, 25, 2 ) ;
#22 = FACE_OUTER_BOUND ( 'NONE', #14, .T. ) ;
#23 = APPROVAL_DATE_TIME ( #59, #182 ) ;
#24 = PRODUCT_DEFINITION_FORMATION_WITH_SPECIFIED_SOURCE ( 'ANY', '', #179, .NOT_KNOWN. ) ;
#25 = DATE_AND_TIME ( #135, #197 ) ;
#26 = ADVANCED_FACE ( 'NONE', ( #98 ), #113, .F. ) ;
#27 = COORDINATED_UNIVERSAL_TIME_OFFSET ( 2, 0, .AHEAD. ) ;
#28 = CARTESIAN_POINT ( 'NONE',  ( -25.39999999999999858, 0.000000000000000000, 10.00000000000000000 ) ) ;
#29 = ORIENTED_EDGE ( 'NONE', *, *, #102, .T. ) ;
#30 = VERTEX_POINT ( 'NONE', #13 ) ;
#31 = VERTEX_POINT ( 'NONE', #46 ) ;
#32 = VECTOR ( 'NONE', #115, 1000.000000000000000 ) ;
#33 = CC_DESIGN_PERSON_AND_ORGANIZATION_ASSIGNMENT ( #75, #105, ( #45 ) ) ;
#34 = EDGE_CURVE ( 'NONE', #128, #126, #81, .T. ) ;
#35 = DIRECTION ( 'NONE',  ( -1.000000000000000000, 0.000000000000000000, 0.000000000000000000 ) ) ;
#36 = CC_DESIGN_SECURITY_CLASSIFICATION ( #45, ( #24 ) ) ;
#37 = CC_DESIGN_PERSON_AND_ORGANIZATION_ASSIGNMENT ( #92, #163, ( #161 ) ) ;
#38 = CARTESIAN_POINT ( 'NONE',  ( -25.40000000002444835, 0.000000000000000000, 10.00000000000000888 ) ) ;
#39 = APPLICATION_PROTOCOL_DEFINITION ( 'international standard', 'config_control_design', 1994, #196 ) ;
#40 = DIRECTION ( 'NONE',  ( 1.224646799147353207E-16, -1.000000000000000000, 0.000000000000000000 ) ) ;
#41 = APPROVAL_DATE_TIME ( #148, #130 ) ;
#42 = PERSON_AND_ORGANIZATION_ROLE ( 'design_supplier' ) ;
#43 = AXIS2_PLACEMENT_3D ( 'NONE', #5, #91, #106 ) ;
#44 = APPLICATION_PROTOCOL_DEFINITION ( 'international standard', 'config_control_design', 1994, #172 ) ;
#45 = SECURITY_CLASSIFICATION ( '', '', #152 ) ;
#46 = CARTESIAN_POINT ( 'NONE',  ( -25.39999999999999858, 0.000000000000000000, 0.000000000000000000 ) ) ;
#47 = ORIENTED_EDGE ( 'NONE', *, *, #157, .T. ) ;
#48 = PERSON_AND_ORGANIZATION ( #20, #70 ) ;
#49 = CC_DESIGN_PERSON_AND_ORGANIZATION_ASSIGNMENT ( #9, #42, ( #24 ) ) ;
#50 = CARTESIAN_POINT ( 'NONE',  ( 2.498001805406602216E-13, 0.000000000000000000, 2009.838703495859136 ) ) ;
#51 = ORIENTED_EDGE ( 'NONE', *, *, #110, .T. ) ;
#52 = EDGE_CURVE ( 'NONE', #154, #31, #63, .T. ) ;
#53 =( GEOMETRIC_REPRESENTATION_CONTEXT ( 3 ) GLOBAL_UNCERTAINTY_ASSIGNED_CONTEXT ( ( #101 ) ) GLOBAL_UNIT_ASSIGNED_CONTEXT ( ( #15, #84, #171 ) ) REPRESENTATION_CONTEXT ( 'NONE', 'WORKASPACE' ) );
#54 = ADVANCED_FACE ( 'NONE', ( #80 ), #96, .T. ) ;
#55 = DIRECTION ( 'NONE',  ( 1.000000000000000000, 0.000000000000000000, 0.000000000000000000 ) ) ;
#56 = APPROVAL_STATUS ( 'not_yet_approved' ) ;
#57 = CLOSED_SHELL ( 'NONE', ( #26, #198, #54, #121, #93 ) ) ;
#58 = CARTESIAN_POINT ( 'NONE',  ( 3.722648604553955717E-13, 0.000000000000000000, 9.838703495859135728 ) ) ;
#59 = DATE_AND_TIME ( #194, #65 ) ;
#60 = COORDINATED_UNIVERSAL_TIME_OFFSET ( 2, 0, .AHEAD. ) ;
#61 = MECHANICAL_CONTEXT ( 'NONE', #172, 'mechanical' ) ;
#62 = APPROVAL_PERSON_ORGANIZATION ( #48, #130, #146 ) ;
#63 = LINE ( 'NONE', #28, #189 ) ;
#64 = APPROVAL_DATE_TIME ( #166, #127 ) ;
#65 = LOCAL_TIME ( 15, 21, 11.00000000000000000, #175 ) ;
#66 = DIRECTION ( 'NONE',  ( -1.000000000000000000, 0.000000000000000000, 0.000000000000000000 ) ) ;
#67 = ORIENTED_EDGE ( 'NONE', *, *, #190, .F. ) ;
#68 = ORIENTED_EDGE ( 'NONE', *, *, #87, .T. ) ;
#69 = CARTESIAN_POINT ( 'NONE',  ( 0.000000000000000000, 0.000000000000000000, 10.00000000000000000 ) ) ;
#70 = ORGANIZATION ( 'UNSPECIFIED', 'UNSPECIFIED', '' ) ;
#71 = DESIGN_CONTEXT ( 'detailed design', #196, 'design' ) ;
#72 = AXIS2_PLACEMENT_3D ( 'NONE', #141, #200, #66 ) ;
#73 = EDGE_CURVE ( 'NONE', #31, #30, #188, .T. ) ;
#74 = CARTESIAN_POINT ( 'NONE',  ( 2.498001805406602216E-13, 0.000000000000000000, 2009.838703495859136 ) ) ;
#75 = PERSON_AND_ORGANIZATION ( #20, #70 ) ;
#76 = DIRECTION ( 'NONE',  ( 1.000000000000000000, 0.000000000000000000, 0.000000000000000000 ) ) ;
#77 = DATE_TIME_ROLE ( 'classification_date' ) ;
#78 = ORIENTED_EDGE ( 'NONE', *, *, #87, .F. ) ;
#79 = SHAPE_DEFINITION_REPRESENTATION ( #10, #150 ) ;
#80 = FACE_OUTER_BOUND ( 'NONE', #114, .T. ) ;
#81 = CIRCLE ( 'NONE', #173, 2000.000000000000000 ) ;
#82 = CARTESIAN_POINT ( 'NONE',  ( 2.498001805406602216E-13, 0.000000000000000000, 2009.838703495859136 ) ) ;
#83 = ORIENTED_EDGE ( 'NONE', *, *, #73, .F. ) ;
#84 =( NAMED_UNIT ( * ) PLANE_ANGLE_UNIT ( ) SI_UNIT ( $, .RADIAN. ) );
#85 = LOCAL_TIME ( 15, 21, 11.00000000000000000, #90 ) ;
#86 = MANIFOLD_SOLID_BREP ( 'Cut-Revolve1', #57 ) ;
#87 = EDGE_CURVE ( 'NONE', #154, #126, #103, .T. ) ;
#88 = AXIS2_PLACEMENT_3D ( 'NONE', #74, #40, #119 ) ;
#89 = DIRECTION ( 'NONE',  ( 1.000000000000000000, 0.000000000000000000, 0.000000000000000000 ) ) ;
#90 = COORDINATED_UNIVERSAL_TIME_OFFSET ( 2, 0, .AHEAD. ) ;
#91 = DIRECTION ( 'NONE',  ( -0.000000000000000000, -0.000000000000000000, -1.000000000000000000 ) ) ;
#92 = PERSON_AND_ORGANIZATION ( #20, #70 ) ;
#93 = ADVANCED_FACE ( 'NONE', ( #136 ), #193, .F. ) ;
#94 = AXIS2_PLACEMENT_3D ( 'NONE', #164, #104, #191 ) ;
#95 = PERSON_AND_ORGANIZATION ( #20, #70 ) ;
#96 = CYLINDRICAL_SURFACE ( 'NONE', #72, 25.39999999999999858 ) ;
#97 = ORIENTED_EDGE ( 'NONE', *, *, #157, .F. ) ;
#98 = FACE_OUTER_BOUND ( 'NONE', #123, .T. ) ;
#99 = CIRCLE ( 'NONE', #43, 25.40000000002469704 ) ;
#100 = DIRECTION ( 'NONE',  ( -0.000000000000000000, -0.000000000000000000, -1.000000000000000000 ) ) ;
#101 = UNCERTAINTY_MEASURE_WITH_UNIT (LENGTH_MEASURE( 1.000000000000000082E-05 ), #15, 'distance_accuracy_value', 'NONE');
#102 = EDGE_CURVE ( 'NONE', #30, #31, #132, .T. ) ;
#103 = CIRCLE ( 'NONE', #88, 2000.000000000000000 ) ;
#104 = DIRECTION ( 'NONE',  ( -0.000000000000000000, -0.000000000000000000, -1.000000000000000000 ) ) ;
#105 = PERSON_AND_ORGANIZATION_ROLE ( 'classification_officer' ) ;
#106 = DIRECTION ( 'NONE',  ( 1.000000000000000000, 0.000000000000000000, 0.000000000000000000 ) ) ;
#107 = DIRECTION ( 'NONE',  ( 0.000000000000000000, 0.000000000000000000, 1.000000000000000000 ) ) ;
#108 = CALENDAR_DATE ( 2021, 25, 2 ) ;
#109 = AXIS2_PLACEMENT_3D ( 'NONE', #125, #185, #55 ) ;
#110 = EDGE_CURVE ( 'NONE', #154, #128, #99, .T. ) ;
#111 = DIRECTION ( 'NONE',  ( 0.000000000000000000, -1.000000000000000000, -0.000000000000000000 ) ) ;
#112 = EDGE_LOOP ( 'NONE', ( #51, #169, #29, #156 ) ) ;
#113 = SPHERICAL_SURFACE ( 'NONE', #2, 2000.000000000000000 ) ;
#114 = EDGE_LOOP ( 'NONE', ( #67, #47, #168, #186 ) ) ;
#115 = DIRECTION ( 'NONE',  ( -0.000000000000000000, -0.000000000000000000, -1.000000000000000000 ) ) ;
#116 = LOCAL_TIME ( 15, 21, 11.00000000000000000, #27 ) ;
#117 = CARTESIAN_POINT ( 'NONE',  ( 25.39999999999999858, 3.110602869834276865E-15, 10.00000000000000000 ) ) ;
#118 = DIRECTION ( 'NONE',  ( 0.000000000000000000, 0.000000000000000000, 1.000000000000000000 ) ) ;
#119 = DIRECTION ( 'NONE',  ( 1.000000000000000000, 1.224646799147353207E-16, 0.000000000000000000 ) ) ;
#120 = PERSON_AND_ORGANIZATION ( #20, #70 ) ;
#121 = ADVANCED_FACE ( 'NONE', ( #22 ), #162, .F. ) ;
#122 = APPROVAL_PERSON_ORGANIZATION ( #120, #182, #178 ) ;
#123 = EDGE_LOOP ( 'NONE', ( #170, #68, #17 ) ) ;
#124 = PERSON_AND_ORGANIZATION ( #20, #70 ) ;
#125 = CARTESIAN_POINT ( 'NONE',  ( 0.000000000000000000, 0.000000000000000000, 0.000000000000000000 ) ) ;
#126 = VERTEX_POINT ( 'NONE', #58 ) ;
#127 = APPROVAL ( #149, 'UNSPECIFIED' ) ;
#128 = VERTEX_POINT ( 'NONE', #176 ) ;
#129 = FACE_OUTER_BOUND ( 'NONE', #112, .T. ) ;
#130 = APPROVAL ( #56, 'UNSPECIFIED' ) ;
#131 = AXIS2_PLACEMENT_3D ( 'NONE', #134, #118, #174 ) ;
#132 = CIRCLE ( 'NONE', #180, 25.39999999999999858 ) ;
#133 = CARTESIAN_POINT ( 'NONE',  ( 0.000000000000000000, 0.000000000000000000, 0.000000000000000000 ) ) ;
#134 = CARTESIAN_POINT ( 'NONE',  ( 0.000000000000000000, 0.000000000000000000, 0.000000000000000000 ) ) ;
#135 = CALENDAR_DATE ( 2021, 25, 2 ) ;
#136 = FACE_OUTER_BOUND ( 'NONE', #142, .T. ) ;
#137 = COORDINATED_UNIVERSAL_TIME_OFFSET ( 2, 0, .AHEAD. ) ;
#138 = AXIS2_PLACEMENT_3D ( 'NONE', #147, #8, #76 ) ;
#139 = DIRECTION ( 'NONE',  ( 0.000000000000000000, 1.000000000000000000, -0.000000000000000000 ) ) ;
#140 = APPROVAL_PERSON_ORGANIZATION ( #124, #127, #167 ) ;
#141 = CARTESIAN_POINT ( 'NONE',  ( 0.000000000000000000, 0.000000000000000000, 10.00000000000000000 ) ) ;
#142 = EDGE_LOOP ( 'NONE', ( #78, #97, #201 ) ) ;
#143 = LINE ( 'NONE', #117, #32 ) ;
#144 = CC_DESIGN_PERSON_AND_ORGANIZATION_ASSIGNMENT ( #95, #6, ( #24 ) ) ;
#145 = DIRECTION ( 'NONE',  ( 0.000000000000000000, 0.000000000000000000, 1.000000000000000000 ) ) ;
#146 = APPROVAL_ROLE ( '' ) ;
#147 = CARTESIAN_POINT ( 'NONE',  ( 2.498001805406602216E-13, 0.000000000000000000, 2009.838703495859136 ) ) ;
#148 = DATE_AND_TIME ( #195, #85 ) ;
#149 = APPROVAL_STATUS ( 'not_yet_approved' ) ;
#150 = ADVANCED_BREP_SHAPE_REPRESENTATION ( '010-0520E_N-BK7_PCV_window', ( #86, #19 ), #53 ) ;
#151 = AXIS2_PLACEMENT_3D ( 'NONE', #69, #100, #35 ) ;
#152 = SECURITY_CLASSIFICATION_LEVEL ( 'unclassified' ) ;
#153 = DIRECTION ( 'NONE',  ( -0.000000000000000000, -0.000000000000000000, -1.000000000000000000 ) ) ;
#154 = VERTEX_POINT ( 'NONE', #38 ) ;
#155 = DIRECTION ( 'NONE',  ( 1.000000000000000000, 0.000000000000000000, 0.000000000000000000 ) ) ;
#156 = ORIENTED_EDGE ( 'NONE', *, *, #52, .F. ) ;
#157 = EDGE_CURVE ( 'NONE', #128, #154, #4, .T. ) ;
#158 = CARTESIAN_POINT ( 'NONE',  ( 0.000000000000000000, 0.000000000000000000, 0.000000000000000000 ) ) ;
#159 = CC_DESIGN_APPROVAL ( #182, ( #45 ) ) ;
#160 = PRODUCT_RELATED_PRODUCT_CATEGORY ( 'detail', '', ( #179 ) ) ;
#161 = PRODUCT_DEFINITION ( 'UNKNOWN', '', #24, #71 ) ;
#162 = PLANE ( 'NONE',  #131 ) ;
#163 = PERSON_AND_ORGANIZATION_ROLE ( 'creator' ) ;
#164 = CARTESIAN_POINT ( 'NONE',  ( 2.498001805406602216E-13, 0.000000000000000000, 10.00000000000000888 ) ) ;
#165 = APPROVAL_STATUS ( 'not_yet_approved' ) ;
#166 = DATE_AND_TIME ( #21, #116 ) ;
#167 = APPROVAL_ROLE ( '' ) ;
#168 = ORIENTED_EDGE ( 'NONE', *, *, #52, .T. ) ;
#169 = ORIENTED_EDGE ( 'NONE', *, *, #190, .T. ) ;
#170 = ORIENTED_EDGE ( 'NONE', *, *, #110, .F. ) ;
#171 =( NAMED_UNIT ( * ) SI_UNIT ( $, .STERADIAN. ) SOLID_ANGLE_UNIT ( ) );
#172 = APPLICATION_CONTEXT ( 'configuration controlled 3d designs of mechanical parts and assemblies' ) ;
#173 = AXIS2_PLACEMENT_3D ( 'NONE', #82, #139, #199 ) ;
#174 = DIRECTION ( 'NONE',  ( 1.000000000000000000, 0.000000000000000000, -0.000000000000000000 ) ) ;
#175 = COORDINATED_UNIVERSAL_TIME_OFFSET ( 2, 0, .AHEAD. ) ;
#176 = CARTESIAN_POINT ( 'NONE',  ( 25.40000000002495284, 3.110602869837332912E-15, 10.00000000000000888 ) ) ;
#177 = DATE_TIME_ROLE ( 'creation_date' ) ;
#178 = APPROVAL_ROLE ( '' ) ;
#179 = PRODUCT ( '010-0520E_N-BK7_PCV_window', '010-0520E_N-BK7_PCV_window', '', ( #61 ) ) ;
#180 = AXIS2_PLACEMENT_3D ( 'NONE', #133, #145, #89 ) ;
#181 = PERSON_AND_ORGANIZATION_ROLE ( 'design_owner' ) ;
#182 = APPROVAL ( #165, 'UNSPECIFIED' ) ;
#183 = CC_DESIGN_APPROVAL ( #127, ( #24 ) ) ;
#184 = PERSON_AND_ORGANIZATION ( #20, #70 ) ;
#185 = DIRECTION ( 'NONE',  ( 0.000000000000000000, 0.000000000000000000, 1.000000000000000000 ) ) ;
#186 = ORIENTED_EDGE ( 'NONE', *, *, #73, .T. ) ;
#187 = CYLINDRICAL_SURFACE ( 'NONE', #151, 25.39999999999999858 ) ;
#188 = CIRCLE ( 'NONE', #109, 25.39999999999999858 ) ;
#189 = VECTOR ( 'NONE', #153, 1000.000000000000000 ) ;
#190 = EDGE_CURVE ( 'NONE', #128, #30, #143, .T. ) ;
#191 = DIRECTION ( 'NONE',  ( 1.000000000000000000, 0.000000000000000000, 0.000000000000000000 ) ) ;
#192 = CC_DESIGN_APPROVAL ( #130, ( #161 ) ) ;
#193 = SPHERICAL_SURFACE ( 'NONE', #138, 2000.000000000000000 ) ;
#194 = CALENDAR_DATE ( 2021, 25, 2 ) ;
#195 = CALENDAR_DATE ( 2021, 25, 2 ) ;
#196 = APPLICATION_CONTEXT ( 'configuration controlled 3d designs of mechanical parts and assemblies' ) ;
#197 = LOCAL_TIME ( 15, 21, 11.00000000000000000, #137 ) ;
#198 = ADVANCED_FACE ( 'NONE', ( #129 ), #187, .T. ) ;
#199 = DIRECTION ( 'NONE',  ( 0.000000000000000000, 0.000000000000000000, 1.000000000000000000 ) ) ;
#200 = DIRECTION ( 'NONE',  ( -0.000000000000000000, -0.000000000000000000, -1.000000000000000000 ) ) ;
#201 = ORIENTED_EDGE ( 'NONE', *, *, #34, .T. ) ;
ENDSEC;
END-ISO-10303-21;
