ISO-10303-21;
HEADER;
FILE_DESCRIPTION (( 'STEP AP203' ),
    '1' );
FILE_NAME ('010-0518E_N-BK7_PCV_window.STEP',
    '2021-02-25T13:20:43',
    ( '' ),
    ( '' ),
    'SwSTEP 2.0',
    'SolidWorks 2019',
    '' );
FILE_SCHEMA (( 'CONFIG_CONTROL_DESIGN' ));
ENDSEC;

DATA;
#1 = DIRECTION ( 'NONE',  ( 0.000000000000000000, -1.000000000000000000, -0.000000000000000000 ) ) ;
#2 = ORIENTED_EDGE ( 'NONE', *, *, #158, .F. ) ;
#3 = CIRCLE ( 'NONE', #56, 1500.000000000000000 ) ;
#4 = PERSON_AND_ORGANIZATION ( #96, #114 ) ;
#5 = LOCAL_TIME ( 15, 20, 43.00000000000000000, #128 ) ;
#6 = DATE_AND_TIME ( #99, #51 ) ;
#7 =( LENGTH_UNIT ( ) NAMED_UNIT ( * ) SI_UNIT ( .MILLI., .METRE. ) );
#8 = CC_DESIGN_APPROVAL ( #161, ( #178 ) ) ;
#9 = APPROVAL_DATE_TIME ( #57, #199 ) ;
#10 = PLANE ( 'NONE',  #16 ) ;
#11 = COORDINATED_UNIVERSAL_TIME_OFFSET ( 2, 0, .AHEAD. ) ;
#12 = APPROVAL_ROLE ( '' ) ;
#13 = ORIENTED_EDGE ( 'NONE', *, *, #38, .F. ) ;
#14 = DIRECTION ( 'NONE',  ( -0.000000000000000000, -0.000000000000000000, -1.000000000000000000 ) ) ;
#15 = PRODUCT_RELATED_PRODUCT_CATEGORY ( 'detail', '', ( #21 ) ) ;
#16 = AXIS2_PLACEMENT_3D ( 'NONE', #177, #59, #69 ) ;
#17 = DESIGN_CONTEXT ( 'detailed design', #129, 'design' ) ;
#18 = ORIENTED_EDGE ( 'NONE', *, *, #180, .T. ) ;
#19 = DIRECTION ( 'NONE',  ( -0.000000000000000000, -0.000000000000000000, -1.000000000000000000 ) ) ;
#20 = AXIS2_PLACEMENT_3D ( 'NONE', #181, #196, #78 ) ;
#21 = PRODUCT ( '010-0518E_N-BK7_PCV_window', '010-0518E_N-BK7_PCV_window', '', ( #73 ) ) ;
#22 = PERSON_AND_ORGANIZATION ( #96, #114 ) ;
#23 = APPROVAL_DATE_TIME ( #125, #161 ) ;
#24 = CARTESIAN_POINT ( 'NONE',  ( 25.39999999999999858, 3.110602869834276865E-15, 10.00000000000000000 ) ) ;
#25 = ADVANCED_FACE ( 'NONE', ( #139 ), #200, .F. ) ;
#26 = DIRECTION ( 'NONE',  ( 1.000000000000000000, 0.000000000000000000, 0.000000000000000000 ) ) ;
#27 = DATE_TIME_ROLE ( 'classification_date' ) ;
#28 = DIRECTION ( 'NONE',  ( 1.224646799147353207E-16, -1.000000000000000000, 0.000000000000000000 ) ) ;
#29 = APPROVAL_STATUS ( 'not_yet_approved' ) ;
#30 = ORIENTED_EDGE ( 'NONE', *, *, #147, .T. ) ;
#31 = ORIENTED_EDGE ( 'NONE', *, *, #113, .T. ) ;
#32 = ORIENTED_EDGE ( 'NONE', *, *, #180, .F. ) ;
#33 = CC_DESIGN_DATE_AND_TIME_ASSIGNMENT ( #160, #27, ( #197 ) ) ;
#34 = LOCAL_TIME ( 15, 20, 43.00000000000000000, #11 ) ;
#35 = APPROVAL_ROLE ( '' ) ;
#36 = CALENDAR_DATE ( 2021, 25, 2 ) ;
#37 = LINE ( 'NONE', #24, #135 ) ;
#38 = EDGE_CURVE ( 'NONE', #65, #105, #101, .T. ) ;
#39 = DIRECTION ( 'NONE',  ( -0.000000000000000000, -0.000000000000000000, -1.000000000000000000 ) ) ;
#40 = AXIS2_PLACEMENT_3D ( 'NONE', #167, #1, #198 ) ;
#41 = CYLINDRICAL_SURFACE ( 'NONE', #124, 25.39999999999999858 ) ;
#42 = PERSON_AND_ORGANIZATION_ROLE ( 'classification_officer' ) ;
#43 = CC_DESIGN_APPROVAL ( #60, ( #75 ) ) ;
#44 = ORIENTED_EDGE ( 'NONE', *, *, #147, .F. ) ;
#45 = DIRECTION ( 'NONE',  ( 1.000000000000000000, 0.000000000000000000, 0.000000000000000000 ) ) ;
#46 = ORIENTED_EDGE ( 'NONE', *, *, #87, .T. ) ;
#47 = CIRCLE ( 'NONE', #155, 25.39999999999999858 ) ;
#48 = DIRECTION ( 'NONE',  ( -0.000000000000000000, -0.000000000000000000, -1.000000000000000000 ) ) ;
#49 = ORIENTED_EDGE ( 'NONE', *, *, #55, .F. ) ;
#50 = AXIS2_PLACEMENT_3D ( 'NONE', #175, #39, #192 ) ;
#51 = LOCAL_TIME ( 15, 20, 43.00000000000000000, #156 ) ;
#52 = PERSON_AND_ORGANIZATION ( #96, #114 ) ;
#53 = DIRECTION ( 'NONE',  ( 1.000000000000000000, 0.000000000000000000, 0.000000000000000000 ) ) ;
#54 = DATE_TIME_ROLE ( 'creation_date' ) ;
#55 = EDGE_CURVE ( 'NONE', #122, #94, #176, .T. ) ;
#56 = AXIS2_PLACEMENT_3D ( 'NONE', #72, #28, #84 ) ;
#57 = DATE_AND_TIME ( #117, #168 ) ;
#58 = DIRECTION ( 'NONE',  ( -1.000000000000000000, 0.000000000000000000, 0.000000000000000000 ) ) ;
#59 = DIRECTION ( 'NONE',  ( 0.000000000000000000, 0.000000000000000000, 1.000000000000000000 ) ) ;
#60 = APPROVAL ( #115, 'UNSPECIFIED' ) ;
#61 = ORIENTED_EDGE ( 'NONE', *, *, #163, .F. ) ;
#62 = APPROVAL_PERSON_ORGANIZATION ( #104, #199, #12 ) ;
#63 = CARTESIAN_POINT ( 'NONE',  ( 0.000000000000000000, 0.000000000000000000, 10.00000000000000000 ) ) ;
#64 = CARTESIAN_POINT ( 'NONE',  ( 1.873501354054951662E-13, 0.000000000000000000, 1509.784931248477506 ) ) ;
#65 = VERTEX_POINT ( 'NONE', #151 ) ;
#66 = EDGE_LOOP ( 'NONE', ( #2, #44, #179 ) ) ;
#67 = CIRCLE ( 'NONE', #109, 25.39999999999847091 ) ;
#68 = DATE_AND_TIME ( #36, #70 ) ;
#69 = DIRECTION ( 'NONE',  ( 1.000000000000000000, 0.000000000000000000, -0.000000000000000000 ) ) ;
#70 = LOCAL_TIME ( 15, 20, 43.00000000000000000, #188 ) ;
#71 = PERSON_AND_ORGANIZATION_ROLE ( 'creator' ) ;
#72 = CARTESIAN_POINT ( 'NONE',  ( 1.873501354054951662E-13, 0.000000000000000000, 1509.784931248477506 ) ) ;
#73 = MECHANICAL_CONTEXT ( 'NONE', #169, 'mechanical' ) ;
#74 = SECURITY_CLASSIFICATION_LEVEL ( 'unclassified' ) ;
#75 = PRODUCT_DEFINITION ( 'UNKNOWN', '', #178, #17 ) ;
#76 = ADVANCED_FACE ( 'NONE', ( #184 ), #121, .T. ) ;
#77 = ORIENTED_EDGE ( 'NONE', *, *, #163, .T. ) ;
#78 = DIRECTION ( 'NONE',  ( 1.000000000000000000, 0.000000000000000000, 0.000000000000000000 ) ) ;
#79 = VECTOR ( 'NONE', #19, 1000.000000000000000 ) ;
#80 = APPLICATION_PROTOCOL_DEFINITION ( 'international standard', 'config_control_design', 1994, #129 ) ;
#81 = PERSON_AND_ORGANIZATION ( #96, #114 ) ;
#82 = CARTESIAN_POINT ( 'NONE',  ( 0.000000000000000000, 0.000000000000000000, 0.000000000000000000 ) ) ;
#83 = CC_DESIGN_APPROVAL ( #199, ( #197 ) ) ;
#84 = DIRECTION ( 'NONE',  ( 1.000000000000000000, 1.224646799147353207E-16, 0.000000000000000000 ) ) ;
#85 = PERSON_AND_ORGANIZATION_ROLE ( 'design_supplier' ) ;
#86 = AXIS2_PLACEMENT_3D ( 'NONE', #102, #149, #26 ) ;
#87 = EDGE_CURVE ( 'NONE', #89, #122, #67, .T. ) ;
#88 = EDGE_LOOP ( 'NONE', ( #61, #30, #31, #185 ) ) ;
#89 = VERTEX_POINT ( 'NONE', #107 ) ;
#90 = CC_DESIGN_PERSON_AND_ORGANIZATION_ASSIGNMENT ( #193, #85, ( #178 ) ) ;
#91 = CIRCLE ( 'NONE', #50, 25.39999999999847091 ) ;
#92 = LINE ( 'NONE', #153, #79 ) ;
#93 = EDGE_LOOP ( 'NONE', ( #46, #77, #18, #137 ) ) ;
#94 = VERTEX_POINT ( 'NONE', #164 ) ;
#95 = APPROVAL_PERSON_ORGANIZATION ( #22, #161, #35 ) ;
#96 = PERSON ( 'UNSPECIFIED', 'UNSPECIFIED', 'UNSPECIFIED', ('UNSPECIFIED'), ('UNSPECIFIED'), ('UNSPECIFIED') ) ;
#97 = MANIFOLD_SOLID_BREP ( 'Cut-Revolve1', #165 ) ;
#98 = PERSON_AND_ORGANIZATION ( #96, #114 ) ;
#99 = CALENDAR_DATE ( 2021, 25, 2 ) ;
#100 = DIRECTION ( 'NONE',  ( 1.000000000000000000, 0.000000000000000000, 0.000000000000000000 ) ) ;
#101 = CIRCLE ( 'NONE', #20, 25.39999999999999858 ) ;
#102 = CARTESIAN_POINT ( 'NONE',  ( 0.000000000000000000, 0.000000000000000000, 0.000000000000000000 ) ) ;
#103 = CALENDAR_DATE ( 2021, 25, 2 ) ;
#104 = PERSON_AND_ORGANIZATION ( #96, #114 ) ;
#105 = VERTEX_POINT ( 'NONE', #182 ) ;
#106 = CC_DESIGN_DATE_AND_TIME_ASSIGNMENT ( #68, #54, ( #75 ) ) ;
#107 = CARTESIAN_POINT ( 'NONE',  ( -25.39999999999828617, 0.000000000000000000, 10.00000000000000888 ) ) ;
#108 = DIRECTION ( 'NONE',  ( 0.000000000000000000, 1.000000000000000000, -0.000000000000000000 ) ) ;
#109 = AXIS2_PLACEMENT_3D ( 'NONE', #154, #48, #45 ) ;
#110 = CARTESIAN_POINT ( 'NONE',  ( 25.39999999999865921, 3.110602869834195218E-15, 10.00000000000000888 ) ) ;
#111 = EDGE_LOOP ( 'NONE', ( #13, #32 ) ) ;
#112 = CC_DESIGN_SECURITY_CLASSIFICATION ( #197, ( #178 ) ) ;
#113 = EDGE_CURVE ( 'NONE', #89, #65, #92, .T. ) ;
#114 = ORGANIZATION ( 'UNSPECIFIED', 'UNSPECIFIED', '' ) ;
#115 = APPROVAL_STATUS ( 'not_yet_approved' ) ;
#116 = AXIS2_PLACEMENT_3D ( 'NONE', #64, #108, #119 ) ;
#117 = CALENDAR_DATE ( 2021, 25, 2 ) ;
#118 = APPLICATION_PROTOCOL_DEFINITION ( 'international standard', 'config_control_design', 1994, #169 ) ;
#119 = DIRECTION ( 'NONE',  ( 0.000000000000000000, 0.000000000000000000, 1.000000000000000000 ) ) ;
#120 = DIRECTION ( 'NONE',  ( -1.000000000000000000, 0.000000000000000000, 0.000000000000000000 ) ) ;
#121 = CYLINDRICAL_SURFACE ( 'NONE', #144, 25.39999999999999858 ) ;
#122 = VERTEX_POINT ( 'NONE', #110 ) ;
#123 = ADVANCED_FACE ( 'NONE', ( #166 ), #148, .F. ) ;
#124 = AXIS2_PLACEMENT_3D ( 'NONE', #146, #159, #58 ) ;
#125 = DATE_AND_TIME ( #157, #5 ) ;
#126 = CC_DESIGN_PERSON_AND_ORGANIZATION_ASSIGNMENT ( #81, #190, ( #178 ) ) ;
#127 = FACE_OUTER_BOUND ( 'NONE', #111, .T. ) ;
#128 = COORDINATED_UNIVERSAL_TIME_OFFSET ( 2, 0, .AHEAD. ) ;
#129 = APPLICATION_CONTEXT ( 'configuration controlled 3d designs of mechanical parts and assemblies' ) ;
#130 =( NAMED_UNIT ( * ) PLANE_ANGLE_UNIT ( ) SI_UNIT ( $, .RADIAN. ) );
#131 = ADVANCED_FACE ( 'NONE', ( #127 ), #10, .F. ) ;
#132 = ADVANCED_BREP_SHAPE_REPRESENTATION ( '010-0518E_N-BK7_PCV_window', ( #97, #86 ), #183 ) ;
#133 = DIRECTION ( 'NONE',  ( 0.000000000000000000, 0.000000000000000000, 1.000000000000000000 ) ) ;
#134 =( NAMED_UNIT ( * ) SI_UNIT ( $, .STERADIAN. ) SOLID_ANGLE_UNIT ( ) );
#135 = VECTOR ( 'NONE', #187, 1000.000000000000000 ) ;
#136 = DIRECTION ( 'NONE',  ( 0.000000000000000000, -1.000000000000000000, -0.000000000000000000 ) ) ;
#137 = ORIENTED_EDGE ( 'NONE', *, *, #113, .F. ) ;
#138 = CC_DESIGN_PERSON_AND_ORGANIZATION_ASSIGNMENT ( #52, #173, ( #21 ) ) ;
#139 = FACE_OUTER_BOUND ( 'NONE', #140, .T. ) ;
#140 = EDGE_LOOP ( 'NONE', ( #141, #162, #49 ) ) ;
#141 = ORIENTED_EDGE ( 'NONE', *, *, #87, .F. ) ;
#142 = APPROVAL_PERSON_ORGANIZATION ( #4, #60, #171 ) ;
#143 = SHAPE_DEFINITION_REPRESENTATION ( #170, #132 ) ;
#144 = AXIS2_PLACEMENT_3D ( 'NONE', #63, #14, #120 ) ;
#145 = APPROVAL_STATUS ( 'not_yet_approved' ) ;
#146 = CARTESIAN_POINT ( 'NONE',  ( 0.000000000000000000, 0.000000000000000000, 10.00000000000000000 ) ) ;
#147 = EDGE_CURVE ( 'NONE', #122, #89, #91, .T. ) ;
#148 = SPHERICAL_SURFACE ( 'NONE', #152, 1500.000000000000000 ) ;
#149 = DIRECTION ( 'NONE',  ( 0.000000000000000000, 0.000000000000000000, 1.000000000000000000 ) ) ;
#150 = PERSON_AND_ORGANIZATION ( #96, #114 ) ;
#151 = CARTESIAN_POINT ( 'NONE',  ( -25.39999999999999858, 0.000000000000000000, 0.000000000000000000 ) ) ;
#152 = AXIS2_PLACEMENT_3D ( 'NONE', #194, #136, #100 ) ;
#153 = CARTESIAN_POINT ( 'NONE',  ( -25.39999999999999858, 0.000000000000000000, 10.00000000000000000 ) ) ;
#154 = CARTESIAN_POINT ( 'NONE',  ( 1.873501354054951662E-13, 0.000000000000000000, 10.00000000000000888 ) ) ;
#155 = AXIS2_PLACEMENT_3D ( 'NONE', #82, #133, #53 ) ;
#156 = COORDINATED_UNIVERSAL_TIME_OFFSET ( 2, 0, .AHEAD. ) ;
#157 = CALENDAR_DATE ( 2021, 25, 2 ) ;
#158 = EDGE_CURVE ( 'NONE', #89, #94, #3, .T. ) ;
#159 = DIRECTION ( 'NONE',  ( -0.000000000000000000, -0.000000000000000000, -1.000000000000000000 ) ) ;
#160 = DATE_AND_TIME ( #103, #34 ) ;
#161 = APPROVAL ( #145, 'UNSPECIFIED' ) ;
#162 = ORIENTED_EDGE ( 'NONE', *, *, #158, .T. ) ;
#163 = EDGE_CURVE ( 'NONE', #122, #105, #37, .T. ) ;
#164 = CARTESIAN_POINT ( 'NONE',  ( 2.791986453415466283E-13, 0.000000000000000000, 9.784931248477457544 ) ) ;
#165 = CLOSED_SHELL ( 'NONE', ( #25, #76, #195, #131, #123 ) ) ;
#166 = FACE_OUTER_BOUND ( 'NONE', #66, .T. ) ;
#167 = CARTESIAN_POINT ( 'NONE',  ( 1.873501354054951662E-13, 0.000000000000000000, 1509.784931248477506 ) ) ;
#168 = LOCAL_TIME ( 15, 20, 43.00000000000000000, #191 ) ;
#169 = APPLICATION_CONTEXT ( 'configuration controlled 3d designs of mechanical parts and assemblies' ) ;
#170 = PRODUCT_DEFINITION_SHAPE ( 'NONE', 'NONE',  #75 ) ;
#171 = APPROVAL_ROLE ( '' ) ;
#172 = FACE_OUTER_BOUND ( 'NONE', #88, .T. ) ;
#173 = PERSON_AND_ORGANIZATION_ROLE ( 'design_owner' ) ;
#174 = CC_DESIGN_PERSON_AND_ORGANIZATION_ASSIGNMENT ( #98, #71, ( #75 ) ) ;
#175 = CARTESIAN_POINT ( 'NONE',  ( 1.873501354054951662E-13, 0.000000000000000000, 10.00000000000000888 ) ) ;
#176 = CIRCLE ( 'NONE', #116, 1499.999999999999773 ) ;
#177 = CARTESIAN_POINT ( 'NONE',  ( 0.000000000000000000, 0.000000000000000000, 0.000000000000000000 ) ) ;
#178 = PRODUCT_DEFINITION_FORMATION_WITH_SPECIFIED_SOURCE ( 'ANY', '', #21, .NOT_KNOWN. ) ;
#179 = ORIENTED_EDGE ( 'NONE', *, *, #55, .T. ) ;
#180 = EDGE_CURVE ( 'NONE', #105, #65, #47, .T. ) ;
#181 = CARTESIAN_POINT ( 'NONE',  ( 0.000000000000000000, 0.000000000000000000, 0.000000000000000000 ) ) ;
#182 = CARTESIAN_POINT ( 'NONE',  ( 25.39999999999999858, 3.110602869834276865E-15, 0.000000000000000000 ) ) ;
#183 =( GEOMETRIC_REPRESENTATION_CONTEXT ( 3 ) GLOBAL_UNCERTAINTY_ASSIGNED_CONTEXT ( ( #201 ) ) GLOBAL_UNIT_ASSIGNED_CONTEXT ( ( #7, #130, #134 ) ) REPRESENTATION_CONTEXT ( 'NONE', 'WORKASPACE' ) );
#184 = FACE_OUTER_BOUND ( 'NONE', #93, .T. ) ;
#185 = ORIENTED_EDGE ( 'NONE', *, *, #38, .T. ) ;
#186 = APPROVAL_DATE_TIME ( #6, #60 ) ;
#187 = DIRECTION ( 'NONE',  ( -0.000000000000000000, -0.000000000000000000, -1.000000000000000000 ) ) ;
#188 = COORDINATED_UNIVERSAL_TIME_OFFSET ( 2, 0, .AHEAD. ) ;
#189 = CC_DESIGN_PERSON_AND_ORGANIZATION_ASSIGNMENT ( #150, #42, ( #197 ) ) ;
#190 = PERSON_AND_ORGANIZATION_ROLE ( 'creator' ) ;
#191 = COORDINATED_UNIVERSAL_TIME_OFFSET ( 2, 0, .AHEAD. ) ;
#192 = DIRECTION ( 'NONE',  ( 1.000000000000000000, 0.000000000000000000, 0.000000000000000000 ) ) ;
#193 = PERSON_AND_ORGANIZATION ( #96, #114 ) ;
#194 = CARTESIAN_POINT ( 'NONE',  ( 1.873501354054951662E-13, 0.000000000000000000, 1509.784931248477506 ) ) ;
#195 = ADVANCED_FACE ( 'NONE', ( #172 ), #41, .T. ) ;
#196 = DIRECTION ( 'NONE',  ( 0.000000000000000000, 0.000000000000000000, 1.000000000000000000 ) ) ;
#197 = SECURITY_CLASSIFICATION ( '', '', #74 ) ;
#198 = DIRECTION ( 'NONE',  ( 1.000000000000000000, 0.000000000000000000, 0.000000000000000000 ) ) ;
#199 = APPROVAL ( #29, 'UNSPECIFIED' ) ;
#200 = SPHERICAL_SURFACE ( 'NONE', #40, 1500.000000000000000 ) ;
#201 = UNCERTAINTY_MEASURE_WITH_UNIT (LENGTH_MEASURE( 1.000000000000000082E-05 ), #7, 'distance_accuracy_value', 'NONE');
ENDSEC;
END-ISO-10303-21;
