ISO-10303-21;
HEADER;
FILE_DESCRIPTION (( 'STEP AP203' ),
    '1' );
FILE_NAME ('010-0515E_N-BK7_PCV_window.STEP',
    '2021-02-25T13:13:30',
    ( '' ),
    ( '' ),
    'SwSTEP 2.0',
    'SolidWorks 2019',
    '' );
FILE_SCHEMA (( 'CONFIG_CONTROL_DESIGN' ));
ENDSEC;

DATA;
#1 = PERSON_AND_ORGANIZATION_ROLE ( 'creator' ) ;
#2 = APPROVAL_STATUS ( 'not_yet_approved' ) ;
#3 = AXIS2_PLACEMENT_3D ( 'NONE', #181, #148, #82 ) ;
#4 = ORIENTED_EDGE ( 'NONE', *, *, #161, .F. ) ;
#5 = ORIENTED_EDGE ( 'NONE', *, *, #32, .T. ) ;
#6 = CC_DESIGN_PERSON_AND_ORGANIZATION_ASSIGNMENT ( #169, #83, ( #133 ) ) ;
#7 = DIRECTION ( 'NONE',  ( 1.000000000000000000, 0.000000000000000000, 0.000000000000000000 ) ) ;
#8 = DATE_AND_TIME ( #116, #138 ) ;
#9 = DIRECTION ( 'NONE',  ( 1.224646799147353207E-16, -1.000000000000000000, 0.000000000000000000 ) ) ;
#10 = FACE_OUTER_BOUND ( 'NONE', #162, .T. ) ;
#11 = LINE ( 'NONE', #27, #187 ) ;
#12 = CARTESIAN_POINT ( 'NONE',  ( 1.249000902703301108E-13, 0.000000000000000000, 10.00000000000000888 ) ) ;
#13 = PERSON_AND_ORGANIZATION ( #23, #156 ) ;
#14 = PERSON_AND_ORGANIZATION ( #23, #156 ) ;
#15 = LOCAL_TIME ( 15, 13, 30.00000000000000000, #174 ) ;
#16 = EDGE_CURVE ( 'NONE', #97, #104, #191, .T. ) ;
#17 = EDGE_LOOP ( 'NONE', ( #4, #111, #167 ) ) ;
#18 = ORIENTED_EDGE ( 'NONE', *, *, #135, .T. ) ;
#19 = APPROVAL_DATE_TIME ( #65, #131 ) ;
#20 = DIRECTION ( 'NONE',  ( 1.000000000000000000, 0.000000000000000000, 0.000000000000000000 ) ) ;
#21 =( NAMED_UNIT ( * ) SI_UNIT ( $, .STERADIAN. ) SOLID_ANGLE_UNIT ( ) );
#22 = CARTESIAN_POINT ( 'NONE',  ( 0.000000000000000000, 0.000000000000000000, 0.000000000000000000 ) ) ;
#23 = PERSON ( 'UNSPECIFIED', 'UNSPECIFIED', 'UNSPECIFIED', ('UNSPECIFIED'), ('UNSPECIFIED'), ('UNSPECIFIED') ) ;
#24 = CARTESIAN_POINT ( 'NONE',  ( 1.249000902703301108E-13, 0.000000000000000000, 1009.677367954281408 ) ) ;
#25 = ADVANCED_FACE ( 'NONE', ( #56 ), #171, .F. ) ;
#26 = LOCAL_TIME ( 15, 13, 30.00000000000000000, #92 ) ;
#27 = CARTESIAN_POINT ( 'NONE',  ( -25.39999999999999858, 0.000000000000000000, 10.00000000000000000 ) ) ;
#28 = DATE_AND_TIME ( #109, #129 ) ;
#29 = PERSON_AND_ORGANIZATION_ROLE ( 'classification_officer' ) ;
#30 = APPROVAL_PERSON_ORGANIZATION ( #146, #131, #194 ) ;
#31 = ADVANCED_BREP_SHAPE_REPRESENTATION ( '010-0515E_N-BK7_PCV_window', ( #137, #39 ), #153 ) ;
#32 = EDGE_CURVE ( 'NONE', #192, #112, #11, .T. ) ;
#33 = ORIENTED_EDGE ( 'NONE', *, *, #16, .T. ) ;
#34 = AXIS2_PLACEMENT_3D ( 'NONE', #128, #149, #7 ) ;
#35 = ORIENTED_EDGE ( 'NONE', *, *, #60, .F. ) ;
#36 = SHAPE_DEFINITION_REPRESENTATION ( #154, #31 ) ;
#37 = CARTESIAN_POINT ( 'NONE',  ( -25.39999999999999858, 0.000000000000000000, 0.000000000000000000 ) ) ;
#38 = CARTESIAN_POINT ( 'NONE',  ( 1.249000902703301108E-13, 0.000000000000000000, 1009.677367954281408 ) ) ;
#39 = AXIS2_PLACEMENT_3D ( 'NONE', #102, #50, #147 ) ;
#40 = CC_DESIGN_DATE_AND_TIME_ASSIGNMENT ( #8, #165, ( #160 ) ) ;
#41 = ADVANCED_FACE ( 'NONE', ( #42 ), #157, .F. ) ;
#42 = FACE_OUTER_BOUND ( 'NONE', #17, .T. ) ;
#43 = DIRECTION ( 'NONE',  ( 0.000000000000000000, -1.000000000000000000, -0.000000000000000000 ) ) ;
#44 = DATE_TIME_ROLE ( 'creation_date' ) ;
#45 = COORDINATED_UNIVERSAL_TIME_OFFSET ( 2, 0, .AHEAD. ) ;
#46 = CARTESIAN_POINT ( 'NONE',  ( 25.39999999999999858, 3.110602869834276865E-15, 10.00000000000000000 ) ) ;
#47 = VERTEX_POINT ( 'NONE', #199 ) ;
#48 = DIRECTION ( 'NONE',  ( 0.000000000000000000, 0.000000000000000000, 1.000000000000000000 ) ) ;
#49 = CALENDAR_DATE ( 2021, 25, 2 ) ;
#50 = DIRECTION ( 'NONE',  ( 0.000000000000000000, 0.000000000000000000, 1.000000000000000000 ) ) ;
#51 = CARTESIAN_POINT ( 'NONE',  ( 0.000000000000000000, 0.000000000000000000, 10.00000000000000000 ) ) ;
#52 = CIRCLE ( 'NONE', #198, 25.39999999999999858 ) ;
#53 = APPROVAL ( #2, 'UNSPECIFIED' ) ;
#54 = APPLICATION_CONTEXT ( 'configuration controlled 3d designs of mechanical parts and assemblies' ) ;
#55 = CARTESIAN_POINT ( 'NONE',  ( 1.249000902703301108E-13, 0.000000000000000000, 1009.677367954281408 ) ) ;
#56 = FACE_OUTER_BOUND ( 'NONE', #80, .T. ) ;
#57 = APPROVAL_ROLE ( '' ) ;
#58 = APPROVAL_STATUS ( 'not_yet_approved' ) ;
#59 = AXIS2_PLACEMENT_3D ( 'NONE', #55, #87, #105 ) ;
#60 = EDGE_CURVE ( 'NONE', #97, #47, #69, .T. ) ;
#61 = APPROVAL_PERSON_ORGANIZATION ( #74, #170, #57 ) ;
#62 = EDGE_LOOP ( 'NONE', ( #123, #33, #94, #63 ) ) ;
#63 = ORIENTED_EDGE ( 'NONE', *, *, #32, .F. ) ;
#64 = CARTESIAN_POINT ( 'NONE',  ( 25.39999999999999858, 3.110602869834276865E-15, 0.000000000000000000 ) ) ;
#65 = DATE_AND_TIME ( #49, #141 ) ;
#66 = DIRECTION ( 'NONE',  ( 1.000000000000000000, 1.224646799147353207E-16, 0.000000000000000000 ) ) ;
#67 = VECTOR ( 'NONE', #106, 1000.000000000000000 ) ;
#68 = AXIS2_PLACEMENT_3D ( 'NONE', #166, #81, #115 ) ;
#69 = CIRCLE ( 'NONE', #59, 999.9999999999997726 ) ;
#70 = DIRECTION ( 'NONE',  ( 1.000000000000000000, 0.000000000000000000, 0.000000000000000000 ) ) ;
#71 = FACE_OUTER_BOUND ( 'NONE', #62, .T. ) ;
#72 = CC_DESIGN_PERSON_AND_ORGANIZATION_ASSIGNMENT ( #189, #108, ( #144 ) ) ;
#73 = ADVANCED_FACE ( 'NONE', ( #71 ), #136, .T. ) ;
#74 = PERSON_AND_ORGANIZATION ( #23, #156 ) ;
#75 = CALENDAR_DATE ( 2021, 25, 2 ) ;
#76 = PRODUCT_RELATED_PRODUCT_CATEGORY ( 'detail', '', ( #133 ) ) ;
#77 = AXIS2_PLACEMENT_3D ( 'NONE', #185, #43, #172 ) ;
#78 = AXIS2_PLACEMENT_3D ( 'NONE', #38, #9, #66 ) ;
#79 = ORIENTED_EDGE ( 'NONE', *, *, #186, .T. ) ;
#80 = EDGE_LOOP ( 'NONE', ( #178, #125, #35 ) ) ;
#81 = DIRECTION ( 'NONE',  ( 0.000000000000000000, 0.000000000000000000, 1.000000000000000000 ) ) ;
#82 = DIRECTION ( 'NONE',  ( 1.000000000000000000, 0.000000000000000000, 0.000000000000000000 ) ) ;
#83 = PERSON_AND_ORGANIZATION_ROLE ( 'design_owner' ) ;
#84 = EDGE_CURVE ( 'NONE', #192, #97, #86, .T. ) ;
#85 = UNCERTAINTY_MEASURE_WITH_UNIT (LENGTH_MEASURE( 1.000000000000000082E-05 ), #114, 'distance_accuracy_value', 'NONE');
#86 = CIRCLE ( 'NONE', #88, 25.40000000000065938 ) ;
#87 = DIRECTION ( 'NONE',  ( 0.000000000000000000, 1.000000000000000000, -0.000000000000000000 ) ) ;
#88 = AXIS2_PLACEMENT_3D ( 'NONE', #12, #184, #20 ) ;
#89 = DIRECTION ( 'NONE',  ( -0.000000000000000000, -0.000000000000000000, -1.000000000000000000 ) ) ;
#90 = CC_DESIGN_DATE_AND_TIME_ASSIGNMENT ( #140, #44, ( #119 ) ) ;
#91 = SECURITY_CLASSIFICATION_LEVEL ( 'unclassified' ) ;
#92 = COORDINATED_UNIVERSAL_TIME_OFFSET ( 2, 0, .AHEAD. ) ;
#93 = CC_DESIGN_PERSON_AND_ORGANIZATION_ASSIGNMENT ( #14, #29, ( #160 ) ) ;
#94 = ORIENTED_EDGE ( 'NONE', *, *, #152, .T. ) ;
#95 = AXIS2_PLACEMENT_3D ( 'NONE', #24, #134, #70 ) ;
#96 = CIRCLE ( 'NONE', #3, 25.39999999999999858 ) ;
#97 = VERTEX_POINT ( 'NONE', #99 ) ;
#98 = APPROVAL_STATUS ( 'not_yet_approved' ) ;
#99 = CARTESIAN_POINT ( 'NONE',  ( 25.40000000000078373, 3.110602869834373106E-15, 10.00000000000000888 ) ) ;
#100 =( NAMED_UNIT ( * ) PLANE_ANGLE_UNIT ( ) SI_UNIT ( $, .RADIAN. ) );
#101 = DIRECTION ( 'NONE',  ( 1.000000000000000000, 0.000000000000000000, 0.000000000000000000 ) ) ;
#102 = CARTESIAN_POINT ( 'NONE',  ( 0.000000000000000000, 0.000000000000000000, 0.000000000000000000 ) ) ;
#103 = ADVANCED_FACE ( 'NONE', ( #180 ), #168, .F. ) ;
#104 = VERTEX_POINT ( 'NONE', #64 ) ;
#105 = DIRECTION ( 'NONE',  ( 0.000000000000000000, 0.000000000000000000, 1.000000000000000000 ) ) ;
#106 = DIRECTION ( 'NONE',  ( -0.000000000000000000, -0.000000000000000000, -1.000000000000000000 ) ) ;
#107 = CIRCLE ( 'NONE', #34, 25.40000000000065938 ) ;
#108 = PERSON_AND_ORGANIZATION_ROLE ( 'design_supplier' ) ;
#109 = CALENDAR_DATE ( 2021, 25, 2 ) ;
#110 = CC_DESIGN_APPROVAL ( #53, ( #144 ) ) ;
#111 = ORIENTED_EDGE ( 'NONE', *, *, #186, .F. ) ;
#112 = VERTEX_POINT ( 'NONE', #37 ) ;
#113 = DIRECTION ( 'NONE',  ( -1.000000000000000000, 0.000000000000000000, 0.000000000000000000 ) ) ;
#114 =( LENGTH_UNIT ( ) NAMED_UNIT ( * ) SI_UNIT ( .MILLI., .METRE. ) );
#115 = DIRECTION ( 'NONE',  ( 1.000000000000000000, 0.000000000000000000, -0.000000000000000000 ) ) ;
#116 = CALENDAR_DATE ( 2021, 25, 2 ) ;
#117 = DESIGN_CONTEXT ( 'detailed design', #54, 'design' ) ;
#118 = DIRECTION ( 'NONE',  ( -0.000000000000000000, -0.000000000000000000, -1.000000000000000000 ) ) ;
#119 = PRODUCT_DEFINITION ( 'UNKNOWN', '', #144, #117 ) ;
#120 = CIRCLE ( 'NONE', #78, 999.9999999999998863 ) ;
#121 = APPROVAL_DATE_TIME ( #175, #170 ) ;
#122 = APPROVAL_ROLE ( '' ) ;
#123 = ORIENTED_EDGE ( 'NONE', *, *, #84, .T. ) ;
#124 = CC_DESIGN_PERSON_AND_ORGANIZATION_ASSIGNMENT ( #139, #190, ( #119 ) ) ;
#125 = ORIENTED_EDGE ( 'NONE', *, *, #161, .T. ) ;
#126 = DIRECTION ( 'NONE',  ( -0.000000000000000000, -0.000000000000000000, -1.000000000000000000 ) ) ;
#127 = COORDINATED_UNIVERSAL_TIME_OFFSET ( 2, 0, .AHEAD. ) ;
#128 = CARTESIAN_POINT ( 'NONE',  ( 1.249000902703301108E-13, 0.000000000000000000, 10.00000000000000888 ) ) ;
#129 = LOCAL_TIME ( 15, 13, 30.00000000000000000, #45 ) ;
#130 = APPLICATION_PROTOCOL_DEFINITION ( 'international standard', 'config_control_design', 1994, #183 ) ;
#131 = APPROVAL ( #98, 'UNSPECIFIED' ) ;
#132 = APPROVAL_PERSON_ORGANIZATION ( #13, #53, #122 ) ;
#133 = PRODUCT ( '010-0515E_N-BK7_PCV_window', '010-0515E_N-BK7_PCV_window', '', ( #195 ) ) ;
#134 = DIRECTION ( 'NONE',  ( 0.000000000000000000, -1.000000000000000000, -0.000000000000000000 ) ) ;
#135 = EDGE_CURVE ( 'NONE', #112, #104, #96, .T. ) ;
#136 = CYLINDRICAL_SURFACE ( 'NONE', #142, 25.39999999999999858 ) ;
#137 = MANIFOLD_SOLID_BREP ( 'Cut-Revolve1', #163 ) ;
#138 = LOCAL_TIME ( 15, 13, 30.00000000000000000, #127 ) ;
#139 = PERSON_AND_ORGANIZATION ( #23, #156 ) ;
#140 = DATE_AND_TIME ( #159, #15 ) ;
#141 = LOCAL_TIME ( 15, 13, 30.00000000000000000, #182 ) ;
#142 = AXIS2_PLACEMENT_3D ( 'NONE', #155, #118, #200 ) ;
#143 = ORIENTED_EDGE ( 'NONE', *, *, #152, .F. ) ;
#144 = PRODUCT_DEFINITION_FORMATION_WITH_SPECIFIED_SOURCE ( 'ANY', '', #133, .NOT_KNOWN. ) ;
#145 = ORIENTED_EDGE ( 'NONE', *, *, #16, .F. ) ;
#146 = PERSON_AND_ORGANIZATION ( #23, #156 ) ;
#147 = DIRECTION ( 'NONE',  ( 1.000000000000000000, 0.000000000000000000, 0.000000000000000000 ) ) ;
#148 = DIRECTION ( 'NONE',  ( 0.000000000000000000, 0.000000000000000000, 1.000000000000000000 ) ) ;
#149 = DIRECTION ( 'NONE',  ( -0.000000000000000000, -0.000000000000000000, -1.000000000000000000 ) ) ;
#150 = APPLICATION_PROTOCOL_DEFINITION ( 'international standard', 'config_control_design', 1994, #54 ) ;
#151 = CC_DESIGN_PERSON_AND_ORGANIZATION_ASSIGNMENT ( #176, #1, ( #144 ) ) ;
#152 = EDGE_CURVE ( 'NONE', #104, #112, #52, .T. ) ;
#153 =( GEOMETRIC_REPRESENTATION_CONTEXT ( 3 ) GLOBAL_UNCERTAINTY_ASSIGNED_CONTEXT ( ( #85 ) ) GLOBAL_UNIT_ASSIGNED_CONTEXT ( ( #114, #100, #21 ) ) REPRESENTATION_CONTEXT ( 'NONE', 'WORKASPACE' ) );
#154 = PRODUCT_DEFINITION_SHAPE ( 'NONE', 'NONE',  #119 ) ;
#155 = CARTESIAN_POINT ( 'NONE',  ( 0.000000000000000000, 0.000000000000000000, 10.00000000000000000 ) ) ;
#156 = ORGANIZATION ( 'UNSPECIFIED', 'UNSPECIFIED', '' ) ;
#157 = SPHERICAL_SURFACE ( 'NONE', #95, 999.9999999999998863 ) ;
#158 = APPROVAL_DATE_TIME ( #28, #53 ) ;
#159 = CALENDAR_DATE ( 2021, 25, 2 ) ;
#160 = SECURITY_CLASSIFICATION ( '', '', #91 ) ;
#161 = EDGE_CURVE ( 'NONE', #192, #47, #120, .T. ) ;
#162 = EDGE_LOOP ( 'NONE', ( #145, #79, #5, #18 ) ) ;
#163 = CLOSED_SHELL ( 'NONE', ( #25, #73, #201, #103, #41 ) ) ;
#164 = ORIENTED_EDGE ( 'NONE', *, *, #135, .F. ) ;
#165 = DATE_TIME_ROLE ( 'classification_date' ) ;
#166 = CARTESIAN_POINT ( 'NONE',  ( 0.000000000000000000, 0.000000000000000000, 0.000000000000000000 ) ) ;
#167 = ORIENTED_EDGE ( 'NONE', *, *, #60, .T. ) ;
#168 = PLANE ( 'NONE',  #68 ) ;
#169 = PERSON_AND_ORGANIZATION ( #23, #156 ) ;
#170 = APPROVAL ( #58, 'UNSPECIFIED' ) ;
#171 = SPHERICAL_SURFACE ( 'NONE', #77, 999.9999999999998863 ) ;
#172 = DIRECTION ( 'NONE',  ( 1.000000000000000000, 0.000000000000000000, 0.000000000000000000 ) ) ;
#173 = CC_DESIGN_APPROVAL ( #170, ( #119 ) ) ;
#174 = COORDINATED_UNIVERSAL_TIME_OFFSET ( 2, 0, .AHEAD. ) ;
#175 = DATE_AND_TIME ( #75, #26 ) ;
#176 = PERSON_AND_ORGANIZATION ( #23, #156 ) ;
#177 = CC_DESIGN_APPROVAL ( #131, ( #160 ) ) ;
#178 = ORIENTED_EDGE ( 'NONE', *, *, #84, .F. ) ;
#179 = EDGE_LOOP ( 'NONE', ( #164, #143 ) ) ;
#180 = FACE_OUTER_BOUND ( 'NONE', #179, .T. ) ;
#181 = CARTESIAN_POINT ( 'NONE',  ( 0.000000000000000000, 0.000000000000000000, 0.000000000000000000 ) ) ;
#182 = COORDINATED_UNIVERSAL_TIME_OFFSET ( 2, 0, .AHEAD. ) ;
#183 = APPLICATION_CONTEXT ( 'configuration controlled 3d designs of mechanical parts and assemblies' ) ;
#184 = DIRECTION ( 'NONE',  ( -0.000000000000000000, -0.000000000000000000, -1.000000000000000000 ) ) ;
#185 = CARTESIAN_POINT ( 'NONE',  ( 1.249000902703301108E-13, 0.000000000000000000, 1009.677367954281408 ) ) ;
#186 = EDGE_CURVE ( 'NONE', #97, #192, #107, .T. ) ;
#187 = VECTOR ( 'NONE', #89, 1000.000000000000000 ) ;
#188 = AXIS2_PLACEMENT_3D ( 'NONE', #51, #126, #113 ) ;
#189 = PERSON_AND_ORGANIZATION ( #23, #156 ) ;
#190 = PERSON_AND_ORGANIZATION_ROLE ( 'creator' ) ;
#191 = LINE ( 'NONE', #46, #67 ) ;
#192 = VERTEX_POINT ( 'NONE', #196 ) ;
#193 = CYLINDRICAL_SURFACE ( 'NONE', #188, 25.39999999999999858 ) ;
#194 = APPROVAL_ROLE ( '' ) ;
#195 = MECHANICAL_CONTEXT ( 'NONE', #183, 'mechanical' ) ;
#196 = CARTESIAN_POINT ( 'NONE',  ( -25.40000000000053149, 0.000000000000000000, 10.00000000000000888 ) ) ;
#197 = CC_DESIGN_SECURITY_CLASSIFICATION ( #160, ( #144 ) ) ;
#198 = AXIS2_PLACEMENT_3D ( 'NONE', #22, #48, #101 ) ;
#199 = CARTESIAN_POINT ( 'NONE',  ( 1.861324302276977606E-13, 0.000000000000000000, 9.677367954281535845 ) ) ;
#200 = DIRECTION ( 'NONE',  ( -1.000000000000000000, 0.000000000000000000, 0.000000000000000000 ) ) ;
#201 = ADVANCED_FACE ( 'NONE', ( #10 ), #193, .T. ) ;
ENDSEC;
END-ISO-10303-21;
