ISO-10303-21;
HEADER;
FILE_DESCRIPTION (( 'STEP AP203' ),
    '1' );
FILE_NAME ('010-0511E_N-BK7_PCV_window.STEP',
    '2021-02-25T13:09:40',
    ( '' ),
    ( '' ),
    'SwSTEP 2.0',
    'SolidWorks 2019',
    '' );
FILE_SCHEMA (( 'CONFIG_CONTROL_DESIGN' ));
ENDSEC;

DATA;
#1 = CARTESIAN_POINT ( 'NONE',  ( 25.39999999999999858, 3.110602869834276865E-15, 10.00000000000000000 ) ) ;
#2 = APPROVAL_STATUS ( 'not_yet_approved' ) ;
#3 = PERSON_AND_ORGANIZATION ( #45, #169 ) ;
#4 = CARTESIAN_POINT ( 'NONE',  ( 1.006139616066548115E-13, 0.000000000000000000, 10.00000000000000888 ) ) ;
#5 = AXIS2_PLACEMENT_3D ( 'NONE', #89, #100, #13 ) ;
#6 = ORIENTED_EDGE ( 'NONE', *, *, #119, .T. ) ;
#7 = COORDINATED_UNIVERSAL_TIME_OFFSET ( 2, 0, .AHEAD. ) ;
#8 = ORIENTED_EDGE ( 'NONE', *, *, #178, .F. ) ;
#9 = ORIENTED_EDGE ( 'NONE', *, *, #70, .T. ) ;
#10 =( NAMED_UNIT ( * ) PLANE_ANGLE_UNIT ( ) SI_UNIT ( $, .RADIAN. ) );
#11 = DATE_AND_TIME ( #79, #98 ) ;
#12 = ADVANCED_FACE ( 'NONE', ( #54 ), #162, .F. ) ;
#13 = DIRECTION ( 'NONE',  ( 1.000000000000000000, 0.000000000000000000, 0.000000000000000000 ) ) ;
#14 = PERSON_AND_ORGANIZATION_ROLE ( 'creator' ) ;
#15 = CARTESIAN_POINT ( 'NONE',  ( 0.000000000000000000, 0.000000000000000000, 10.00000000000000000 ) ) ;
#16 = CC_DESIGN_PERSON_AND_ORGANIZATION_ASSIGNMENT ( #194, #14, ( #180 ) ) ;
#17 = DIRECTION ( 'NONE',  ( -1.000000000000000000, 0.000000000000000000, 0.000000000000000000 ) ) ;
#18 = CALENDAR_DATE ( 2021, 25, 2 ) ;
#19 = VERTEX_POINT ( 'NONE', #86 ) ;
#20 = LOCAL_TIME ( 15, 9, 40.00000000000000000, #67 ) ;
#21 = DIRECTION ( 'NONE',  ( -0.000000000000000000, -0.000000000000000000, -1.000000000000000000 ) ) ;
#22 = APPROVAL_PERSON_ORGANIZATION ( #191, #87, #30 ) ;
#23 = PRODUCT_RELATED_PRODUCT_CATEGORY ( 'detail', '', ( #77 ) ) ;
#24 = APPROVAL_ROLE ( '' ) ;
#25 = CARTESIAN_POINT ( 'NONE',  ( -25.39999999999999858, 0.000000000000000000, 0.000000000000000000 ) ) ;
#26 = FACE_OUTER_BOUND ( 'NONE', #173, .T. ) ;
#27 = DATE_AND_TIME ( #157, #134 ) ;
#28 = DIRECTION ( 'NONE',  ( 1.000000000000000000, 0.000000000000000000, -0.000000000000000000 ) ) ;
#29 = CARTESIAN_POINT ( 'NONE',  ( 25.39999999999999858, 3.110602869834276865E-15, 0.000000000000000000 ) ) ;
#30 = APPROVAL_ROLE ( '' ) ;
#31 = ORIENTED_EDGE ( 'NONE', *, *, #119, .F. ) ;
#32 = LINE ( 'NONE', #49, #126 ) ;
#33 = CIRCLE ( 'NONE', #149, 25.39999999999847091 ) ;
#34 = UNCERTAINTY_MEASURE_WITH_UNIT (LENGTH_MEASURE( 1.000000000000000082E-05 ), #185, 'distance_accuracy_value', 'NONE');
#35 = PERSON_AND_ORGANIZATION ( #45, #169 ) ;
#36 = FACE_OUTER_BOUND ( 'NONE', #112, .T. ) ;
#37 = CC_DESIGN_APPROVAL ( #163, ( #180 ) ) ;
#38 = DIRECTION ( 'NONE',  ( 1.000000000000000000, 0.000000000000000000, 0.000000000000000000 ) ) ;
#39 = LOCAL_TIME ( 15, 9, 40.00000000000000000, #127 ) ;
#40 = EDGE_CURVE ( 'NONE', #19, #116, #68, .T. ) ;
#41 = CARTESIAN_POINT ( 'NONE',  ( 1.006139616066548115E-13, 0.000000000000000000, 809.5966733297482278 ) ) ;
#42 =( GEOMETRIC_REPRESENTATION_CONTEXT ( 3 ) GLOBAL_UNCERTAINTY_ASSIGNED_CONTEXT ( ( #34 ) ) GLOBAL_UNIT_ASSIGNED_CONTEXT ( ( #185, #10, #201 ) ) REPRESENTATION_CONTEXT ( 'NONE', 'WORKASPACE' ) );
#43 = APPROVAL_STATUS ( 'not_yet_approved' ) ;
#44 = EDGE_LOOP ( 'NONE', ( #193, #145, #146 ) ) ;
#45 = PERSON ( 'UNSPECIFIED', 'UNSPECIFIED', 'UNSPECIFIED', ('UNSPECIFIED'), ('UNSPECIFIED'), ('UNSPECIFIED') ) ;
#46 = PERSON_AND_ORGANIZATION_ROLE ( 'creator' ) ;
#47 = AXIS2_PLACEMENT_3D ( 'NONE', #74, #82, #28 ) ;
#48 = ORIENTED_EDGE ( 'NONE', *, *, #178, .T. ) ;
#49 = CARTESIAN_POINT ( 'NONE',  ( -25.39999999999999858, 0.000000000000000000, 10.00000000000000000 ) ) ;
#50 = AXIS2_PLACEMENT_3D ( 'NONE', #80, #59, #151 ) ;
#51 = APPROVAL_ROLE ( '' ) ;
#52 = DIRECTION ( 'NONE',  ( 1.000000000000000000, 0.000000000000000000, 0.000000000000000000 ) ) ;
#53 = ADVANCED_FACE ( 'NONE', ( #158 ), #92, .T. ) ;
#54 = FACE_OUTER_BOUND ( 'NONE', #192, .T. ) ;
#55 = CC_DESIGN_SECURITY_CLASSIFICATION ( #84, ( #113 ) ) ;
#56 = VERTEX_POINT ( 'NONE', #29 ) ;
#57 = APPLICATION_CONTEXT ( 'configuration controlled 3d designs of mechanical parts and assemblies' ) ;
#58 = AXIS2_PLACEMENT_3D ( 'NONE', #130, #195, #171 ) ;
#59 = DIRECTION ( 'NONE',  ( 0.000000000000000000, 0.000000000000000000, 1.000000000000000000 ) ) ;
#60 = MECHANICAL_CONTEXT ( 'NONE', #76, 'mechanical' ) ;
#61 = DIRECTION ( 'NONE',  ( 0.000000000000000000, 0.000000000000000000, 1.000000000000000000 ) ) ;
#62 = CC_DESIGN_PERSON_AND_ORGANIZATION_ASSIGNMENT ( #63, #129, ( #113 ) ) ;
#63 = PERSON_AND_ORGANIZATION ( #45, #169 ) ;
#64 = SECURITY_CLASSIFICATION_LEVEL ( 'unclassified' ) ;
#65 = DIRECTION ( 'NONE',  ( -0.000000000000000000, -0.000000000000000000, -1.000000000000000000 ) ) ;
#66 = AXIS2_PLACEMENT_3D ( 'NONE', #41, #103, #38 ) ;
#67 = COORDINATED_UNIVERSAL_TIME_OFFSET ( 2, 0, .AHEAD. ) ;
#68 = CIRCLE ( 'NONE', #183, 799.9999999999998863 ) ;
#69 = DIRECTION ( 'NONE',  ( 0.000000000000000000, 0.000000000000000000, 1.000000000000000000 ) ) ;
#70 = EDGE_CURVE ( 'NONE', #141, #56, #78, .T. ) ;
#71 = PERSON_AND_ORGANIZATION ( #45, #169 ) ;
#72 = CARTESIAN_POINT ( 'NONE',  ( 1.006139616066548115E-13, 0.000000000000000000, 809.5966733297482278 ) ) ;
#73 = APPROVAL_PERSON_ORGANIZATION ( #102, #163, #24 ) ;
#74 = CARTESIAN_POINT ( 'NONE',  ( 0.000000000000000000, 0.000000000000000000, 0.000000000000000000 ) ) ;
#75 = CC_DESIGN_PERSON_AND_ORGANIZATION_ASSIGNMENT ( #35, #188, ( #77 ) ) ;
#76 = APPLICATION_CONTEXT ( 'configuration controlled 3d designs of mechanical parts and assemblies' ) ;
#77 = PRODUCT ( '010-0511E_N-BK7_PCV_window', '010-0511E_N-BK7_PCV_window', '', ( #60 ) ) ;
#78 = CIRCLE ( 'NONE', #58, 25.39999999999999858 ) ;
#79 = CALENDAR_DATE ( 2021, 25, 2 ) ;
#80 = CARTESIAN_POINT ( 'NONE',  ( 0.000000000000000000, 0.000000000000000000, 0.000000000000000000 ) ) ;
#81 = CARTESIAN_POINT ( 'NONE',  ( -25.39999999999837144, 0.000000000000000000, 10.00000000000000888 ) ) ;
#82 = DIRECTION ( 'NONE',  ( 0.000000000000000000, 0.000000000000000000, 1.000000000000000000 ) ) ;
#83 = CIRCLE ( 'NONE', #187, 800.0000000000000000 ) ;
#84 = SECURITY_CLASSIFICATION ( '', '', #64 ) ;
#85 = VERTEX_POINT ( 'NONE', #81 ) ;
#86 = CARTESIAN_POINT ( 'NONE',  ( 25.39999999999857394, 3.110602869834190090E-15, 10.00000000000000888 ) ) ;
#87 = APPROVAL ( #139, 'UNSPECIFIED' ) ;
#88 = EDGE_CURVE ( 'NONE', #85, #19, #172, .T. ) ;
#89 = CARTESIAN_POINT ( 'NONE',  ( 1.006139616066548115E-13, 0.000000000000000000, 809.5966733297482278 ) ) ;
#90 = APPROVAL ( #43, 'UNSPECIFIED' ) ;
#91 = FACE_OUTER_BOUND ( 'NONE', #44, .T. ) ;
#92 = CYLINDRICAL_SURFACE ( 'NONE', #164, 25.39999999999999858 ) ;
#93 = APPROVAL_DATE_TIME ( #111, #90 ) ;
#94 = CARTESIAN_POINT ( 'NONE',  ( 1.006139616066548115E-13, 0.000000000000000000, 10.00000000000000888 ) ) ;
#95 = ORIENTED_EDGE ( 'NONE', *, *, #97, .F. ) ;
#96 = AXIS2_PLACEMENT_3D ( 'NONE', #4, #114, #52 ) ;
#97 = EDGE_CURVE ( 'NONE', #85, #141, #32, .T. ) ;
#98 = LOCAL_TIME ( 15, 9, 40.00000000000000000, #148 ) ;
#99 = CC_DESIGN_PERSON_AND_ORGANIZATION_ASSIGNMENT ( #122, #123, ( #84 ) ) ;
#100 = DIRECTION ( 'NONE',  ( 0.000000000000000000, -1.000000000000000000, -0.000000000000000000 ) ) ;
#101 = CC_DESIGN_APPROVAL ( #90, ( #113 ) ) ;
#102 = PERSON_AND_ORGANIZATION ( #45, #169 ) ;
#103 = DIRECTION ( 'NONE',  ( 0.000000000000000000, -1.000000000000000000, -0.000000000000000000 ) ) ;
#104 = COORDINATED_UNIVERSAL_TIME_OFFSET ( 2, 0, .AHEAD. ) ;
#105 = DIRECTION ( 'NONE',  ( 1.000000000000000000, 0.000000000000000000, 0.000000000000000000 ) ) ;
#106 = SHAPE_DEFINITION_REPRESENTATION ( #147, #165 ) ;
#107 = ORIENTED_EDGE ( 'NONE', *, *, #70, .F. ) ;
#108 = CC_DESIGN_DATE_AND_TIME_ASSIGNMENT ( #142, #170, ( #180 ) ) ;
#109 = APPROVAL_DATE_TIME ( #11, #163 ) ;
#110 = ORIENTED_EDGE ( 'NONE', *, *, #40, .T. ) ;
#111 = DATE_AND_TIME ( #154, #20 ) ;
#112 = EDGE_LOOP ( 'NONE', ( #131, #31, #110 ) ) ;
#113 = PRODUCT_DEFINITION_FORMATION_WITH_SPECIFIED_SOURCE ( 'ANY', '', #77, .NOT_KNOWN. ) ;
#114 = DIRECTION ( 'NONE',  ( -0.000000000000000000, -0.000000000000000000, -1.000000000000000000 ) ) ;
#115 = LOCAL_TIME ( 15, 9, 40.00000000000000000, #7 ) ;
#116 = VERTEX_POINT ( 'NONE', #160 ) ;
#117 = CARTESIAN_POINT ( 'NONE',  ( 0.000000000000000000, 0.000000000000000000, 0.000000000000000000 ) ) ;
#118 = VECTOR ( 'NONE', #166, 1000.000000000000000 ) ;
#119 = EDGE_CURVE ( 'NONE', #19, #85, #33, .T. ) ;
#120 = CARTESIAN_POINT ( 'NONE',  ( 1.006139616066548115E-13, 0.000000000000000000, 809.5966733297482278 ) ) ;
#121 = DIRECTION ( 'NONE',  ( 1.000000000000000000, 1.224646799147353207E-16, 0.000000000000000000 ) ) ;
#122 = PERSON_AND_ORGANIZATION ( #45, #169 ) ;
#123 = PERSON_AND_ORGANIZATION_ROLE ( 'classification_officer' ) ;
#124 = CIRCLE ( 'NONE', #168, 25.39999999999999858 ) ;
#125 = EDGE_LOOP ( 'NONE', ( #179, #137, #48, #95 ) ) ;
#126 = VECTOR ( 'NONE', #175, 1000.000000000000000 ) ;
#127 = COORDINATED_UNIVERSAL_TIME_OFFSET ( 2, 0, .AHEAD. ) ;
#128 = ORIENTED_EDGE ( 'NONE', *, *, #199, .F. ) ;
#129 = PERSON_AND_ORGANIZATION_ROLE ( 'design_supplier' ) ;
#130 = CARTESIAN_POINT ( 'NONE',  ( 0.000000000000000000, 0.000000000000000000, 0.000000000000000000 ) ) ;
#131 = ORIENTED_EDGE ( 'NONE', *, *, #182, .F. ) ;
#132 = AXIS2_PLACEMENT_3D ( 'NONE', #15, #65, #186 ) ;
#133 = ADVANCED_FACE ( 'NONE', ( #26 ), #155, .T. ) ;
#134 = LOCAL_TIME ( 15, 9, 40.00000000000000000, #104 ) ;
#135 = CLOSED_SHELL ( 'NONE', ( #196, #53, #133, #12, #161 ) ) ;
#136 = SPHERICAL_SURFACE ( 'NONE', #5, 800.0000000000000000 ) ;
#137 = ORIENTED_EDGE ( 'NONE', *, *, #199, .T. ) ;
#138 = DIRECTION ( 'NONE',  ( 1.000000000000000000, 0.000000000000000000, 0.000000000000000000 ) ) ;
#139 = APPROVAL_STATUS ( 'not_yet_approved' ) ;
#140 = CC_DESIGN_PERSON_AND_ORGANIZATION_ASSIGNMENT ( #71, #46, ( #113 ) ) ;
#141 = VERTEX_POINT ( 'NONE', #25 ) ;
#142 = DATE_AND_TIME ( #190, #115 ) ;
#143 = DIRECTION ( 'NONE',  ( 0.000000000000000000, 1.000000000000000000, -0.000000000000000000 ) ) ;
#144 = ORIENTED_EDGE ( 'NONE', *, *, #97, .T. ) ;
#145 = ORIENTED_EDGE ( 'NONE', *, *, #182, .T. ) ;
#146 = ORIENTED_EDGE ( 'NONE', *, *, #40, .F. ) ;
#147 = PRODUCT_DEFINITION_SHAPE ( 'NONE', 'NONE',  #180 ) ;
#148 = COORDINATED_UNIVERSAL_TIME_OFFSET ( 2, 0, .AHEAD. ) ;
#149 = AXIS2_PLACEMENT_3D ( 'NONE', #94, #21, #105 ) ;
#150 = APPLICATION_PROTOCOL_DEFINITION ( 'international standard', 'config_control_design', 1994, #76 ) ;
#151 = DIRECTION ( 'NONE',  ( 1.000000000000000000, 0.000000000000000000, 0.000000000000000000 ) ) ;
#152 = LINE ( 'NONE', #1, #118 ) ;
#153 = CC_DESIGN_DATE_AND_TIME_ASSIGNMENT ( #27, #176, ( #84 ) ) ;
#154 = CALENDAR_DATE ( 2021, 25, 2 ) ;
#155 = CYLINDRICAL_SURFACE ( 'NONE', #132, 25.39999999999999858 ) ;
#156 = MANIFOLD_SOLID_BREP ( 'Cut-Revolve1', #135 ) ;
#157 = CALENDAR_DATE ( 2021, 25, 2 ) ;
#158 = FACE_OUTER_BOUND ( 'NONE', #125, .T. ) ;
#159 = DATE_AND_TIME ( #18, #39 ) ;
#160 = CARTESIAN_POINT ( 'NONE',  ( 1.495998335725489212E-13, 0.000000000000000000, 9.596673329748227843 ) ) ;
#161 = ADVANCED_FACE ( 'NONE', ( #36 ), #136, .F. ) ;
#162 = PLANE ( 'NONE',  #47 ) ;
#163 = APPROVAL ( #2, 'UNSPECIFIED' ) ;
#164 = AXIS2_PLACEMENT_3D ( 'NONE', #177, #197, #17 ) ;
#165 = ADVANCED_BREP_SHAPE_REPRESENTATION ( '010-0511E_N-BK7_PCV_window', ( #156, #50 ), #42 ) ;
#166 = DIRECTION ( 'NONE',  ( -0.000000000000000000, -0.000000000000000000, -1.000000000000000000 ) ) ;
#167 = DIRECTION ( 'NONE',  ( 1.224646799147353207E-16, -1.000000000000000000, 0.000000000000000000 ) ) ;
#168 = AXIS2_PLACEMENT_3D ( 'NONE', #117, #61, #138 ) ;
#169 = ORGANIZATION ( 'UNSPECIFIED', 'UNSPECIFIED', '' ) ;
#170 = DATE_TIME_ROLE ( 'creation_date' ) ;
#171 = DIRECTION ( 'NONE',  ( 1.000000000000000000, 0.000000000000000000, 0.000000000000000000 ) ) ;
#172 = CIRCLE ( 'NONE', #96, 25.39999999999847091 ) ;
#173 = EDGE_LOOP ( 'NONE', ( #128, #6, #144, #9 ) ) ;
#174 = APPROVAL_DATE_TIME ( #159, #87 ) ;
#175 = DIRECTION ( 'NONE',  ( -0.000000000000000000, -0.000000000000000000, -1.000000000000000000 ) ) ;
#176 = DATE_TIME_ROLE ( 'classification_date' ) ;
#177 = CARTESIAN_POINT ( 'NONE',  ( 0.000000000000000000, 0.000000000000000000, 10.00000000000000000 ) ) ;
#178 = EDGE_CURVE ( 'NONE', #56, #141, #124, .T. ) ;
#179 = ORIENTED_EDGE ( 'NONE', *, *, #88, .T. ) ;
#180 = PRODUCT_DEFINITION ( 'UNKNOWN', '', #113, #184 ) ;
#181 = APPROVAL_PERSON_ORGANIZATION ( #3, #90, #51 ) ;
#182 = EDGE_CURVE ( 'NONE', #85, #116, #83, .T. ) ;
#183 = AXIS2_PLACEMENT_3D ( 'NONE', #72, #143, #69 ) ;
#184 = DESIGN_CONTEXT ( 'detailed design', #57, 'design' ) ;
#185 =( LENGTH_UNIT ( ) NAMED_UNIT ( * ) SI_UNIT ( .MILLI., .METRE. ) );
#186 = DIRECTION ( 'NONE',  ( -1.000000000000000000, 0.000000000000000000, 0.000000000000000000 ) ) ;
#187 = AXIS2_PLACEMENT_3D ( 'NONE', #120, #167, #121 ) ;
#188 = PERSON_AND_ORGANIZATION_ROLE ( 'design_owner' ) ;
#189 = SPHERICAL_SURFACE ( 'NONE', #66, 800.0000000000000000 ) ;
#190 = CALENDAR_DATE ( 2021, 25, 2 ) ;
#191 = PERSON_AND_ORGANIZATION ( #45, #169 ) ;
#192 = EDGE_LOOP ( 'NONE', ( #107, #8 ) ) ;
#193 = ORIENTED_EDGE ( 'NONE', *, *, #88, .F. ) ;
#194 = PERSON_AND_ORGANIZATION ( #45, #169 ) ;
#195 = DIRECTION ( 'NONE',  ( 0.000000000000000000, 0.000000000000000000, 1.000000000000000000 ) ) ;
#196 = ADVANCED_FACE ( 'NONE', ( #91 ), #189, .F. ) ;
#197 = DIRECTION ( 'NONE',  ( -0.000000000000000000, -0.000000000000000000, -1.000000000000000000 ) ) ;
#198 = CC_DESIGN_APPROVAL ( #87, ( #84 ) ) ;
#199 = EDGE_CURVE ( 'NONE', #19, #56, #152, .T. ) ;
#200 = APPLICATION_PROTOCOL_DEFINITION ( 'international standard', 'config_control_design', 1994, #57 ) ;
#201 =( NAMED_UNIT ( * ) SI_UNIT ( $, .STERADIAN. ) SOLID_ANGLE_UNIT ( ) );
ENDSEC;
END-ISO-10303-21;
