ISO-10303-21;
HEADER;
FILE_DESCRIPTION (( 'STEP AP203' ),
    '1' );
FILE_NAME ('010-0508E_N-BK7_PCV_window.STEP',
    '2021-02-25T12:57:14',
    ( '' ),
    ( '' ),
    'SwSTEP 2.0',
    'SolidWorks 2019',
    '' );
FILE_SCHEMA (( 'CONFIG_CONTROL_DESIGN' ));
ENDSEC;

DATA;
#1 = CYLINDRICAL_SURFACE ( 'NONE', #162, 25.39999999999999858 ) ;
#2 = DIRECTION ( 'NONE',  ( -0.000000000000000000, -0.000000000000000000, -1.000000000000000000 ) ) ;
#3 = CIRCLE ( 'NONE', #115, 150.0000000000000000 ) ;
#4 = CYLINDRICAL_SURFACE ( 'NONE', #59, 25.39999999999999858 ) ;
#5 = CC_DESIGN_PERSON_AND_ORGANIZATION_ASSIGNMENT ( #104, #84, ( #198 ) ) ;
#6 = VERTEX_POINT ( 'NONE', #28 ) ;
#7 = CIRCLE ( 'NONE', #74, 25.39999999999999858 ) ;
#8 = PERSON_AND_ORGANIZATION ( #81, #129 ) ;
#9 = DATE_AND_TIME ( #146, #135 ) ;
#10 = EDGE_CURVE ( 'NONE', #107, #141, #150, .T. ) ;
#11 = APPROVAL_DATE_TIME ( #53, #174 ) ;
#12 = CIRCLE ( 'NONE', #77, 150.0000000000000000 ) ;
#13 = DIRECTION ( 'NONE',  ( -0.000000000000000000, -0.000000000000000000, -1.000000000000000000 ) ) ;
#14 = DIRECTION ( 'NONE',  ( 1.000000000000000000, 0.000000000000000000, 0.000000000000000000 ) ) ;
#15 = CC_DESIGN_PERSON_AND_ORGANIZATION_ASSIGNMENT ( #39, #38, ( #164 ) ) ;
#16 = DIRECTION ( 'NONE',  ( 0.000000000000000000, 0.000000000000000000, 1.000000000000000000 ) ) ;
#17 = FACE_OUTER_BOUND ( 'NONE', #156, .T. ) ;
#18 = ORIENTED_EDGE ( 'NONE', *, *, #159, .F. ) ;
#19 = PERSON_AND_ORGANIZATION_ROLE ( 'design_supplier' ) ;
#20 = CIRCLE ( 'NONE', #149, 25.39999999999997371 ) ;
#21 = CARTESIAN_POINT ( 'NONE',  ( 0.000000000000000000, 0.000000000000000000, 0.000000000000000000 ) ) ;
#22 = APPROVAL_DATE_TIME ( #163, #166 ) ;
#23 = AXIS2_PLACEMENT_3D ( 'NONE', #41, #46, #14 ) ;
#24 = ORIENTED_EDGE ( 'NONE', *, *, #159, .T. ) ;
#25 = DIRECTION ( 'NONE',  ( 0.000000000000000000, -1.000000000000000000, -0.000000000000000000 ) ) ;
#26 = DIRECTION ( 'NONE',  ( 1.000000000000000000, 0.000000000000000000, 0.000000000000000000 ) ) ;
#27 = CC_DESIGN_PERSON_AND_ORGANIZATION_ASSIGNMENT ( #8, #67, ( #40 ) ) ;
#28 = CARTESIAN_POINT ( 'NONE',  ( 25.39999999999999503, 3.110602869834276471E-15, 10.00000000000000888 ) ) ;
#29 = LINE ( 'NONE', #169, #83 ) ;
#30 = CARTESIAN_POINT ( 'NONE',  ( 2.081668171172168513E-14, 0.000000000000000000, 10.00000000000000888 ) ) ;
#31 = VERTEX_POINT ( 'NONE', #137 ) ;
#32 = EDGE_CURVE ( 'NONE', #6, #78, #3, .T. ) ;
#33 = AXIS2_PLACEMENT_3D ( 'NONE', #125, #25, #26 ) ;
#34 = CC_DESIGN_DATE_AND_TIME_ASSIGNMENT ( #69, #196, ( #198 ) ) ;
#35 = PRODUCT_DEFINITION_FORMATION_WITH_SPECIFIED_SOURCE ( 'ANY', '', #164, .NOT_KNOWN. ) ;
#36 = PERSON_AND_ORGANIZATION ( #81, #129 ) ;
#37 = EDGE_CURVE ( 'NONE', #6, #107, #87, .T. ) ;
#38 = PERSON_AND_ORGANIZATION_ROLE ( 'design_owner' ) ;
#39 = PERSON_AND_ORGANIZATION ( #81, #129 ) ;
#40 = SECURITY_CLASSIFICATION ( '', '', #101 ) ;
#41 = CARTESIAN_POINT ( 'NONE',  ( 2.081668171172168513E-14, 0.000000000000000000, 10.00000000000000888 ) ) ;
#42 = COORDINATED_UNIVERSAL_TIME_OFFSET ( 2, 0, .AHEAD. ) ;
#43 = CC_DESIGN_APPROVAL ( #174, ( #198 ) ) ;
#44 = DIRECTION ( 'NONE',  ( 1.000000000000000000, 0.000000000000000000, 0.000000000000000000 ) ) ;
#45 = ORIENTED_EDGE ( 'NONE', *, *, #32, .T. ) ;
#46 = DIRECTION ( 'NONE',  ( -0.000000000000000000, -0.000000000000000000, -1.000000000000000000 ) ) ;
#47 =( NAMED_UNIT ( * ) PLANE_ANGLE_UNIT ( ) SI_UNIT ( $, .RADIAN. ) );
#48 = ORIENTED_EDGE ( 'NONE', *, *, #195, .T. ) ;
#49 = DIRECTION ( 'NONE',  ( 0.000000000000000000, 0.000000000000000000, 1.000000000000000000 ) ) ;
#50 = EDGE_LOOP ( 'NONE', ( #122, #188, #65, #48 ) ) ;
#51 = CC_DESIGN_APPROVAL ( #166, ( #40 ) ) ;
#52 = AXIS2_PLACEMENT_3D ( 'NONE', #91, #136, #200 ) ;
#53 = DATE_AND_TIME ( #82, #113 ) ;
#54 = SHAPE_DEFINITION_REPRESENTATION ( #197, #138 ) ;
#55 = ADVANCED_FACE ( 'NONE', ( #17 ), #94, .F. ) ;
#56 = COORDINATED_UNIVERSAL_TIME_OFFSET ( 2, 0, .AHEAD. ) ;
#57 = APPLICATION_PROTOCOL_DEFINITION ( 'international standard', 'config_control_design', 1994, #153 ) ;
#58 = COORDINATED_UNIVERSAL_TIME_OFFSET ( 2, 0, .AHEAD. ) ;
#59 = AXIS2_PLACEMENT_3D ( 'NONE', #124, #2, #105 ) ;
#60 = PRODUCT_RELATED_PRODUCT_CATEGORY ( 'detail', '', ( #164 ) ) ;
#61 = CARTESIAN_POINT ( 'NONE',  ( 2.081668171172168513E-14, 0.000000000000000000, 157.8338256286429271 ) ) ;
#62 = DIRECTION ( 'NONE',  ( 1.000000000000000000, 1.224646799147353207E-16, 0.000000000000000000 ) ) ;
#63 =( LENGTH_UNIT ( ) NAMED_UNIT ( * ) SI_UNIT ( .MILLI., .METRE. ) );
#64 = CARTESIAN_POINT ( 'NONE',  ( 0.000000000000000000, 0.000000000000000000, 10.00000000000000000 ) ) ;
#65 = ORIENTED_EDGE ( 'NONE', *, *, #10, .T. ) ;
#66 = APPROVAL_PERSON_ORGANIZATION ( #161, #128, #116 ) ;
#67 = PERSON_AND_ORGANIZATION_ROLE ( 'classification_officer' ) ;
#68 = PERSON_AND_ORGANIZATION ( #81, #129 ) ;
#69 = DATE_AND_TIME ( #148, #121 ) ;
#70 = APPROVAL_STATUS ( 'not_yet_approved' ) ;
#71 = ADVANCED_FACE ( 'NONE', ( #75 ), #154, .F. ) ;
#72 = ORIENTED_EDGE ( 'NONE', *, *, #190, .T. ) ;
#73 = DIRECTION ( 'NONE',  ( -0.000000000000000000, -0.000000000000000000, -1.000000000000000000 ) ) ;
#74 = AXIS2_PLACEMENT_3D ( 'NONE', #76, #49, #93 ) ;
#75 = FACE_OUTER_BOUND ( 'NONE', #171, .T. ) ;
#76 = CARTESIAN_POINT ( 'NONE',  ( 0.000000000000000000, 0.000000000000000000, 0.000000000000000000 ) ) ;
#77 = AXIS2_PLACEMENT_3D ( 'NONE', #187, #182, #62 ) ;
#78 = VERTEX_POINT ( 'NONE', #109 ) ;
#79 = ORIENTED_EDGE ( 'NONE', *, *, #10, .F. ) ;
#80 = ADVANCED_FACE ( 'NONE', ( #151 ), #1, .T. ) ;
#81 = PERSON ( 'UNSPECIFIED', 'UNSPECIFIED', 'UNSPECIFIED', ('UNSPECIFIED'), ('UNSPECIFIED'), ('UNSPECIFIED') ) ;
#82 = CALENDAR_DATE ( 2021, 25, 2 ) ;
#83 = VECTOR ( 'NONE', #73, 1000.000000000000000 ) ;
#84 = PERSON_AND_ORGANIZATION_ROLE ( 'creator' ) ;
#85 = MECHANICAL_CONTEXT ( 'NONE', #133, 'mechanical' ) ;
#86 = DIRECTION ( 'NONE',  ( 1.000000000000000000, 0.000000000000000000, 0.000000000000000000 ) ) ;
#87 = CIRCLE ( 'NONE', #23, 25.39999999999997371 ) ;
#88 = CC_DESIGN_PERSON_AND_ORGANIZATION_ASSIGNMENT ( #130, #19, ( #35 ) ) ;
#89 = CARTESIAN_POINT ( 'NONE',  ( -25.39999999999995239, 0.000000000000000000, 10.00000000000000888 ) ) ;
#90 = CARTESIAN_POINT ( 'NONE',  ( 2.081668171172168513E-14, 0.000000000000000000, 157.8338256286429271 ) ) ;
#91 = CARTESIAN_POINT ( 'NONE',  ( 0.000000000000000000, 0.000000000000000000, 0.000000000000000000 ) ) ;
#92 = DIRECTION ( 'NONE',  ( 1.000000000000000000, 0.000000000000000000, 0.000000000000000000 ) ) ;
#93 = DIRECTION ( 'NONE',  ( 1.000000000000000000, 0.000000000000000000, 0.000000000000000000 ) ) ;
#94 = PLANE ( 'NONE',  #52 ) ;
#95 = CIRCLE ( 'NONE', #103, 25.39999999999999858 ) ;
#96 = EDGE_LOOP ( 'NONE', ( #18, #181, #45 ) ) ;
#97 = CC_DESIGN_PERSON_AND_ORGANIZATION_ASSIGNMENT ( #36, #177, ( #35 ) ) ;
#98 = ORIENTED_EDGE ( 'NONE', *, *, #195, .F. ) ;
#99 = DIRECTION ( 'NONE',  ( 0.000000000000000000, 1.000000000000000000, -0.000000000000000000 ) ) ;
#100 = LOCAL_TIME ( 14, 57, 14.00000000000000000, #192 ) ;
#101 = SECURITY_CLASSIFICATION_LEVEL ( 'unclassified' ) ;
#102 = PERSON_AND_ORGANIZATION ( #81, #129 ) ;
#103 = AXIS2_PLACEMENT_3D ( 'NONE', #155, #16, #139 ) ;
#104 = PERSON_AND_ORGANIZATION ( #81, #129 ) ;
#105 = DIRECTION ( 'NONE',  ( -1.000000000000000000, 0.000000000000000000, 0.000000000000000000 ) ) ;
#106 = MANIFOLD_SOLID_BREP ( 'Cut-Revolve1', #175 ) ;
#107 = VERTEX_POINT ( 'NONE', #89 ) ;
#108 = FACE_OUTER_BOUND ( 'NONE', #50, .T. ) ;
#109 = CARTESIAN_POINT ( 'NONE',  ( 3.000153270532683387E-14, 0.000000000000000000, 7.833825628642932415 ) ) ;
#110 = ORIENTED_EDGE ( 'NONE', *, *, #160, .T. ) ;
#111 = DIRECTION ( 'NONE',  ( -1.000000000000000000, 0.000000000000000000, 0.000000000000000000 ) ) ;
#112 = ORIENTED_EDGE ( 'NONE', *, *, #144, .T. ) ;
#113 = LOCAL_TIME ( 14, 57, 14.00000000000000000, #56 ) ;
#114 = ORIENTED_EDGE ( 'NONE', *, *, #160, .F. ) ;
#115 = AXIS2_PLACEMENT_3D ( 'NONE', #90, #99, #127 ) ;
#116 = APPROVAL_ROLE ( '' ) ;
#117 = CALENDAR_DATE ( 2021, 25, 2 ) ;
#118 = APPROVAL_ROLE ( '' ) ;
#119 = APPROVAL_PERSON_ORGANIZATION ( #102, #174, #147 ) ;
#120 = CALENDAR_DATE ( 2021, 25, 2 ) ;
#121 = LOCAL_TIME ( 14, 57, 14.00000000000000000, #134 ) ;
#122 = ORIENTED_EDGE ( 'NONE', *, *, #144, .F. ) ;
#123 = DIRECTION ( 'NONE',  ( 0.000000000000000000, -1.000000000000000000, -0.000000000000000000 ) ) ;
#124 = CARTESIAN_POINT ( 'NONE',  ( 0.000000000000000000, 0.000000000000000000, 10.00000000000000000 ) ) ;
#125 = CARTESIAN_POINT ( 'NONE',  ( 2.081668171172168513E-14, 0.000000000000000000, 157.8338256286429271 ) ) ;
#126 =( GEOMETRIC_REPRESENTATION_CONTEXT ( 3 ) GLOBAL_UNCERTAINTY_ASSIGNED_CONTEXT ( ( #168 ) ) GLOBAL_UNIT_ASSIGNED_CONTEXT ( ( #63, #47, #158 ) ) REPRESENTATION_CONTEXT ( 'NONE', 'WORKASPACE' ) );
#127 = DIRECTION ( 'NONE',  ( 0.000000000000000000, 0.000000000000000000, 1.000000000000000000 ) ) ;
#128 = APPROVAL ( #70, 'UNSPECIFIED' ) ;
#129 = ORGANIZATION ( 'UNSPECIFIED', 'UNSPECIFIED', '' ) ;
#130 = PERSON_AND_ORGANIZATION ( #81, #129 ) ;
#131 = ADVANCED_FACE ( 'NONE', ( #186 ), #170, .F. ) ;
#132 = APPROVAL_STATUS ( 'not_yet_approved' ) ;
#133 = APPLICATION_CONTEXT ( 'configuration controlled 3d designs of mechanical parts and assemblies' ) ;
#134 = COORDINATED_UNIVERSAL_TIME_OFFSET ( 2, 0, .AHEAD. ) ;
#135 = LOCAL_TIME ( 14, 57, 14.00000000000000000, #58 ) ;
#136 = DIRECTION ( 'NONE',  ( 0.000000000000000000, 0.000000000000000000, 1.000000000000000000 ) ) ;
#137 = CARTESIAN_POINT ( 'NONE',  ( 25.39999999999999858, 3.110602869834276865E-15, 0.000000000000000000 ) ) ;
#138 = ADVANCED_BREP_SHAPE_REPRESENTATION ( '010-0508E_N-BK7_PCV_window', ( #106, #191 ), #126 ) ;
#139 = DIRECTION ( 'NONE',  ( 1.000000000000000000, 0.000000000000000000, 0.000000000000000000 ) ) ;
#140 = VECTOR ( 'NONE', #201, 1000.000000000000000 ) ;
#141 = VERTEX_POINT ( 'NONE', #167 ) ;
#142 = ADVANCED_FACE ( 'NONE', ( #108 ), #4, .T. ) ;
#143 = APPLICATION_PROTOCOL_DEFINITION ( 'international standard', 'config_control_design', 1994, #133 ) ;
#144 = EDGE_CURVE ( 'NONE', #6, #31, #29, .T. ) ;
#145 = CC_DESIGN_APPROVAL ( #128, ( #35 ) ) ;
#146 = CALENDAR_DATE ( 2021, 25, 2 ) ;
#147 = APPROVAL_ROLE ( '' ) ;
#148 = CALENDAR_DATE ( 2021, 25, 2 ) ;
#149 = AXIS2_PLACEMENT_3D ( 'NONE', #30, #184, #92 ) ;
#150 = LINE ( 'NONE', #165, #140 ) ;
#151 = FACE_OUTER_BOUND ( 'NONE', #189, .T. ) ;
#152 = CC_DESIGN_DATE_AND_TIME_ASSIGNMENT ( #9, #178, ( #40 ) ) ;
#153 = APPLICATION_CONTEXT ( 'configuration controlled 3d designs of mechanical parts and assemblies' ) ;
#154 = SPHERICAL_SURFACE ( 'NONE', #199, 150.0000000000000000 ) ;
#155 = CARTESIAN_POINT ( 'NONE',  ( 0.000000000000000000, 0.000000000000000000, 0.000000000000000000 ) ) ;
#156 = EDGE_LOOP ( 'NONE', ( #98, #114 ) ) ;
#157 = APPROVAL_PERSON_ORGANIZATION ( #68, #166, #118 ) ;
#158 =( NAMED_UNIT ( * ) SI_UNIT ( $, .STERADIAN. ) SOLID_ANGLE_UNIT ( ) );
#159 = EDGE_CURVE ( 'NONE', #107, #78, #12, .T. ) ;
#160 = EDGE_CURVE ( 'NONE', #31, #141, #95, .T. ) ;
#161 = PERSON_AND_ORGANIZATION ( #81, #129 ) ;
#162 = AXIS2_PLACEMENT_3D ( 'NONE', #64, #13, #111 ) ;
#163 = DATE_AND_TIME ( #120, #180 ) ;
#164 = PRODUCT ( '010-0508E_N-BK7_PCV_window', '010-0508E_N-BK7_PCV_window', '', ( #85 ) ) ;
#165 = CARTESIAN_POINT ( 'NONE',  ( -25.39999999999999858, 0.000000000000000000, 10.00000000000000000 ) ) ;
#166 = APPROVAL ( #132, 'UNSPECIFIED' ) ;
#167 = CARTESIAN_POINT ( 'NONE',  ( -25.39999999999999858, 0.000000000000000000, 0.000000000000000000 ) ) ;
#168 = UNCERTAINTY_MEASURE_WITH_UNIT (LENGTH_MEASURE( 1.000000000000000082E-05 ), #63, 'distance_accuracy_value', 'NONE');
#169 = CARTESIAN_POINT ( 'NONE',  ( 25.39999999999999858, 3.110602869834276865E-15, 10.00000000000000000 ) ) ;
#170 = SPHERICAL_SURFACE ( 'NONE', #33, 150.0000000000000000 ) ;
#171 = EDGE_LOOP ( 'NONE', ( #185, #24, #173 ) ) ;
#172 = CC_DESIGN_SECURITY_CLASSIFICATION ( #40, ( #35 ) ) ;
#173 = ORIENTED_EDGE ( 'NONE', *, *, #32, .F. ) ;
#174 = APPROVAL ( #179, 'UNSPECIFIED' ) ;
#175 = CLOSED_SHELL ( 'NONE', ( #71, #80, #142, #55, #131 ) ) ;
#176 = APPROVAL_DATE_TIME ( #193, #128 ) ;
#177 = PERSON_AND_ORGANIZATION_ROLE ( 'creator' ) ;
#178 = DATE_TIME_ROLE ( 'classification_date' ) ;
#179 = APPROVAL_STATUS ( 'not_yet_approved' ) ;
#180 = LOCAL_TIME ( 14, 57, 14.00000000000000000, #42 ) ;
#181 = ORIENTED_EDGE ( 'NONE', *, *, #37, .F. ) ;
#182 = DIRECTION ( 'NONE',  ( 1.224646799147353207E-16, -1.000000000000000000, 0.000000000000000000 ) ) ;
#183 = DESIGN_CONTEXT ( 'detailed design', #153, 'design' ) ;
#184 = DIRECTION ( 'NONE',  ( -0.000000000000000000, -0.000000000000000000, -1.000000000000000000 ) ) ;
#185 = ORIENTED_EDGE ( 'NONE', *, *, #190, .F. ) ;
#186 = FACE_OUTER_BOUND ( 'NONE', #96, .T. ) ;
#187 = CARTESIAN_POINT ( 'NONE',  ( 2.081668171172168513E-14, 0.000000000000000000, 157.8338256286429271 ) ) ;
#188 = ORIENTED_EDGE ( 'NONE', *, *, #37, .T. ) ;
#189 = EDGE_LOOP ( 'NONE', ( #72, #112, #110, #79 ) ) ;
#190 = EDGE_CURVE ( 'NONE', #107, #6, #20, .T. ) ;
#191 = AXIS2_PLACEMENT_3D ( 'NONE', #21, #194, #86 ) ;
#192 = COORDINATED_UNIVERSAL_TIME_OFFSET ( 2, 0, .AHEAD. ) ;
#193 = DATE_AND_TIME ( #117, #100 ) ;
#194 = DIRECTION ( 'NONE',  ( 0.000000000000000000, 0.000000000000000000, 1.000000000000000000 ) ) ;
#195 = EDGE_CURVE ( 'NONE', #141, #31, #7, .T. ) ;
#196 = DATE_TIME_ROLE ( 'creation_date' ) ;
#197 = PRODUCT_DEFINITION_SHAPE ( 'NONE', 'NONE',  #198 ) ;
#198 = PRODUCT_DEFINITION ( 'UNKNOWN', '', #35, #183 ) ;
#199 = AXIS2_PLACEMENT_3D ( 'NONE', #61, #123, #44 ) ;
#200 = DIRECTION ( 'NONE',  ( 1.000000000000000000, 0.000000000000000000, -0.000000000000000000 ) ) ;
#201 = DIRECTION ( 'NONE',  ( -0.000000000000000000, -0.000000000000000000, -1.000000000000000000 ) ) ;
ENDSEC;
END-ISO-10303-21;
