ISO-10303-21;
HEADER;
FILE_DESCRIPTION (( 'STEP AP203' ),
    '1' );
FILE_NAME ('010-0507E_N-BK7_PCV_window.STEP',
    '2021-02-25T13:04:01',
    ( '' ),
    ( '' ),
    'SwSTEP 2.0',
    'SolidWorks 2019',
    '' );
FILE_SCHEMA (( 'CONFIG_CONTROL_DESIGN' ));
ENDSEC;

DATA;
#1 = PERSON_AND_ORGANIZATION_ROLE ( 'classification_officer' ) ;
#2 = CC_DESIGN_DATE_AND_TIME_ASSIGNMENT ( #161, #115, ( #174 ) ) ;
#3 = CALENDAR_DATE ( 2021, 25, 2 ) ;
#4 = AXIS2_PLACEMENT_3D ( 'NONE', #84, #166, #53 ) ;
#5 = EDGE_LOOP ( 'NONE', ( #61, #132, #63 ) ) ;
#6 = VERTEX_POINT ( 'NONE', #195 ) ;
#7 = CARTESIAN_POINT ( 'NONE',  ( 7.632783294297951215E-14, 0.000000000000000000, 609.4621255759199130 ) ) ;
#8 = CYLINDRICAL_SURFACE ( 'NONE', #124, 25.39999999999999858 ) ;
#9 = DIRECTION ( 'NONE',  ( 0.000000000000000000, -1.000000000000000000, -0.000000000000000000 ) ) ;
#10 = AXIS2_PLACEMENT_3D ( 'NONE', #89, #92, #55 ) ;
#11 = DIRECTION ( 'NONE',  ( 0.000000000000000000, 0.000000000000000000, 1.000000000000000000 ) ) ;
#12 = APPROVAL_PERSON_ORGANIZATION ( #176, #190, #127 ) ;
#13 = DATE_AND_TIME ( #172, #28 ) ;
#14 = AXIS2_PLACEMENT_3D ( 'NONE', #185, #42, #120 ) ;
#15 = CC_DESIGN_DATE_AND_TIME_ASSIGNMENT ( #144, #129, ( #143 ) ) ;
#16 = PERSON_AND_ORGANIZATION ( #60, #82 ) ;
#17 = DIRECTION ( 'NONE',  ( 1.000000000000000000, 0.000000000000000000, 0.000000000000000000 ) ) ;
#18 = APPROVAL ( #47, 'UNSPECIFIED' ) ;
#19 = ORIENTED_EDGE ( 'NONE', *, *, #70, .T. ) ;
#20 = EDGE_LOOP ( 'NONE', ( #118, #30, #148, #51 ) ) ;
#21 = DIRECTION ( 'NONE',  ( 0.000000000000000000, 0.000000000000000000, 1.000000000000000000 ) ) ;
#22 = DIRECTION ( 'NONE',  ( 1.000000000000000000, 0.000000000000000000, 0.000000000000000000 ) ) ;
#23 = APPLICATION_PROTOCOL_DEFINITION ( 'international standard', 'config_control_design', 1994, #76 ) ;
#24 = CARTESIAN_POINT ( 'NONE',  ( 25.39999999999999858, 3.110602869834276865E-15, 10.00000000000000000 ) ) ;
#25 = CARTESIAN_POINT ( 'NONE',  ( 0.000000000000000000, 0.000000000000000000, 0.000000000000000000 ) ) ;
#26 = APPROVAL_DATE_TIME ( #146, #109 ) ;
#27 = APPROVAL_STATUS ( 'not_yet_approved' ) ;
#28 = LOCAL_TIME ( 15, 4, 1.000000000000000000, #112 ) ;
#29 = PERSON_AND_ORGANIZATION ( #60, #82 ) ;
#30 = ORIENTED_EDGE ( 'NONE', *, *, #173, .T. ) ;
#31 = COORDINATED_UNIVERSAL_TIME_OFFSET ( 2, 0, .AHEAD. ) ;
#32 = CIRCLE ( 'NONE', #98, 25.39999999999628599 ) ;
#33 = LINE ( 'NONE', #116, #107 ) ;
#34 = ORIENTED_EDGE ( 'NONE', *, *, #59, .T. ) ;
#35 = CARTESIAN_POINT ( 'NONE',  ( -25.39999999999621139, 0.000000000000000000, 10.00000000000000888 ) ) ;
#36 = CC_DESIGN_PERSON_AND_ORGANIZATION_ASSIGNMENT ( #77, #1, ( #174 ) ) ;
#37 = CC_DESIGN_APPROVAL ( #190, ( #71 ) ) ;
#38 = PERSON_AND_ORGANIZATION_ROLE ( 'design_owner' ) ;
#39 = DIRECTION ( 'NONE',  ( 1.000000000000000000, 0.000000000000000000, 0.000000000000000000 ) ) ;
#40 = CALENDAR_DATE ( 2021, 25, 2 ) ;
#41 = AXIS2_PLACEMENT_3D ( 'NONE', #123, #167, #22 ) ;
#42 = DIRECTION ( 'NONE',  ( -0.000000000000000000, -0.000000000000000000, -1.000000000000000000 ) ) ;
#43 = COORDINATED_UNIVERSAL_TIME_OFFSET ( 2, 0, .AHEAD. ) ;
#44 = PERSON_AND_ORGANIZATION ( #60, #82 ) ;
#45 = PRODUCT_DEFINITION_SHAPE ( 'NONE', 'NONE',  #143 ) ;
#46 = CC_DESIGN_APPROVAL ( #109, ( #143 ) ) ;
#47 = APPROVAL_STATUS ( 'not_yet_approved' ) ;
#48 = LOCAL_TIME ( 15, 4, 1.000000000000000000, #145 ) ;
#49 = ORIENTED_EDGE ( 'NONE', *, *, #200, .F. ) ;
#50 = MECHANICAL_CONTEXT ( 'NONE', #149, 'mechanical' ) ;
#51 = ORIENTED_EDGE ( 'NONE', *, *, #93, .T. ) ;
#52 = DIRECTION ( 'NONE',  ( 1.000000000000000000, 0.000000000000000000, 0.000000000000000000 ) ) ;
#53 = DIRECTION ( 'NONE',  ( -1.000000000000000000, 0.000000000000000000, 0.000000000000000000 ) ) ;
#54 = FACE_OUTER_BOUND ( 'NONE', #20, .T. ) ;
#55 = DIRECTION ( 'NONE',  ( 1.000000000000000000, 0.000000000000000000, 0.000000000000000000 ) ) ;
#56 = CIRCLE ( 'NONE', #160, 599.9999999999998863 ) ;
#57 = SECURITY_CLASSIFICATION_LEVEL ( 'unclassified' ) ;
#58 = PRODUCT ( '010-0507E_N-BK7_PCV_window', '010-0507E_N-BK7_PCV_window', '', ( #50 ) ) ;
#59 = EDGE_CURVE ( 'NONE', #131, #150, #32, .T. ) ;
#60 = PERSON ( 'UNSPECIFIED', 'UNSPECIFIED', 'UNSPECIFIED', ('UNSPECIFIED'), ('UNSPECIFIED'), ('UNSPECIFIED') ) ;
#61 = ORIENTED_EDGE ( 'NONE', *, *, #187, .F. ) ;
#62 = CC_DESIGN_PERSON_AND_ORGANIZATION_ASSIGNMENT ( #75, #111, ( #71 ) ) ;
#63 = ORIENTED_EDGE ( 'NONE', *, *, #100, .T. ) ;
#64 =( GEOMETRIC_REPRESENTATION_CONTEXT ( 3 ) GLOBAL_UNCERTAINTY_ASSIGNED_CONTEXT ( ( #72 ) ) GLOBAL_UNIT_ASSIGNED_CONTEXT ( ( #91, #99, #180 ) ) REPRESENTATION_CONTEXT ( 'NONE', 'WORKASPACE' ) );
#65 = ORIENTED_EDGE ( 'NONE', *, *, #93, .F. ) ;
#66 = CARTESIAN_POINT ( 'NONE',  ( 7.632783294297951215E-14, 0.000000000000000000, 10.00000000000000888 ) ) ;
#67 = APPLICATION_PROTOCOL_DEFINITION ( 'international standard', 'config_control_design', 1994, #149 ) ;
#68 = DIRECTION ( 'NONE',  ( 1.000000000000000000, 1.224646799147353207E-16, 0.000000000000000000 ) ) ;
#69 = FACE_OUTER_BOUND ( 'NONE', #80, .T. ) ;
#70 = EDGE_CURVE ( 'NONE', #150, #130, #168, .T. ) ;
#71 = PRODUCT_DEFINITION_FORMATION_WITH_SPECIFIED_SOURCE ( 'ANY', '', #58, .NOT_KNOWN. ) ;
#72 = UNCERTAINTY_MEASURE_WITH_UNIT (LENGTH_MEASURE( 1.000000000000000082E-05 ), #91, 'distance_accuracy_value', 'NONE');
#73 = CC_DESIGN_APPROVAL ( #18, ( #174 ) ) ;
#74 = CC_DESIGN_PERSON_AND_ORGANIZATION_ASSIGNMENT ( #16, #114, ( #71 ) ) ;
#75 = PERSON_AND_ORGANIZATION ( #60, #82 ) ;
#76 = APPLICATION_CONTEXT ( 'configuration controlled 3d designs of mechanical parts and assemblies' ) ;
#77 = PERSON_AND_ORGANIZATION ( #60, #82 ) ;
#78 = EDGE_LOOP ( 'NONE', ( #65, #101 ) ) ;
#79 = COORDINATED_UNIVERSAL_TIME_OFFSET ( 2, 0, .AHEAD. ) ;
#80 = EDGE_LOOP ( 'NONE', ( #181, #165, #95 ) ) ;
#81 = VERTEX_POINT ( 'NONE', #119 ) ;
#82 = ORGANIZATION ( 'UNSPECIFIED', 'UNSPECIFIED', '' ) ;
#83 = LOCAL_TIME ( 15, 4, 1.000000000000000000, #79 ) ;
#84 = CARTESIAN_POINT ( 'NONE',  ( 0.000000000000000000, 0.000000000000000000, 10.00000000000000000 ) ) ;
#85 = DIRECTION ( 'NONE',  ( -0.000000000000000000, -0.000000000000000000, -1.000000000000000000 ) ) ;
#86 = DIRECTION ( 'NONE',  ( 1.224646799147353207E-16, -1.000000000000000000, 0.000000000000000000 ) ) ;
#87 = CARTESIAN_POINT ( 'NONE',  ( 0.000000000000000000, 0.000000000000000000, 10.00000000000000000 ) ) ;
#88 = EDGE_CURVE ( 'NONE', #130, #81, #155, .T. ) ;
#89 = CARTESIAN_POINT ( 'NONE',  ( 0.000000000000000000, 0.000000000000000000, 0.000000000000000000 ) ) ;
#90 = AXIS2_PLACEMENT_3D ( 'NONE', #135, #9, #39 ) ;
#91 =( LENGTH_UNIT ( ) NAMED_UNIT ( * ) SI_UNIT ( .MILLI., .METRE. ) );
#92 = DIRECTION ( 'NONE',  ( 0.000000000000000000, 0.000000000000000000, 1.000000000000000000 ) ) ;
#93 = EDGE_CURVE ( 'NONE', #81, #130, #125, .T. ) ;
#94 = ADVANCED_FACE ( 'NONE', ( #196 ), #183, .F. ) ;
#95 = ORIENTED_EDGE ( 'NONE', *, *, #100, .F. ) ;
#96 = DATE_AND_TIME ( #3, #48 ) ;
#97 = PERSON_AND_ORGANIZATION ( #60, #82 ) ;
#98 = AXIS2_PLACEMENT_3D ( 'NONE', #66, #157, #52 ) ;
#99 =( NAMED_UNIT ( * ) PLANE_ANGLE_UNIT ( ) SI_UNIT ( $, .RADIAN. ) );
#100 = EDGE_CURVE ( 'NONE', #150, #6, #117, .T. ) ;
#101 = ORIENTED_EDGE ( 'NONE', *, *, #88, .F. ) ;
#102 = AXIS2_PLACEMENT_3D ( 'NONE', #134, #163, #17 ) ;
#103 = CYLINDRICAL_SURFACE ( 'NONE', #4, 25.39999999999999858 ) ;
#104 = FACE_OUTER_BOUND ( 'NONE', #78, .T. ) ;
#105 = ADVANCED_FACE ( 'NONE', ( #104 ), #136, .F. ) ;
#106 = PERSON_AND_ORGANIZATION ( #60, #82 ) ;
#107 = VECTOR ( 'NONE', #85, 1000.000000000000000 ) ;
#108 = DIRECTION ( 'NONE',  ( 0.000000000000000000, 1.000000000000000000, -0.000000000000000000 ) ) ;
#109 = APPROVAL ( #122, 'UNSPECIFIED' ) ;
#110 = VECTOR ( 'NONE', #151, 1000.000000000000000 ) ;
#111 = PERSON_AND_ORGANIZATION_ROLE ( 'creator' ) ;
#112 = COORDINATED_UNIVERSAL_TIME_OFFSET ( 2, 0, .AHEAD. ) ;
#113 = APPROVAL_PERSON_ORGANIZATION ( #106, #109, #186 ) ;
#114 = PERSON_AND_ORGANIZATION_ROLE ( 'design_supplier' ) ;
#115 = DATE_TIME_ROLE ( 'classification_date' ) ;
#116 = CARTESIAN_POINT ( 'NONE',  ( -25.39999999999999858, 0.000000000000000000, 10.00000000000000000 ) ) ;
#117 = CIRCLE ( 'NONE', #142, 599.9999999999997726 ) ;
#118 = ORIENTED_EDGE ( 'NONE', *, *, #70, .F. ) ;
#119 = CARTESIAN_POINT ( 'NONE',  ( -25.39999999999999858, 0.000000000000000000, 0.000000000000000000 ) ) ;
#120 = DIRECTION ( 'NONE',  ( 1.000000000000000000, 0.000000000000000000, 0.000000000000000000 ) ) ;
#121 = SPHERICAL_SURFACE ( 'NONE', #41, 599.9999999999998863 ) ;
#122 = APPROVAL_STATUS ( 'not_yet_approved' ) ;
#123 = CARTESIAN_POINT ( 'NONE',  ( 7.632783294297951215E-14, 0.000000000000000000, 609.4621255759199130 ) ) ;
#124 = AXIS2_PLACEMENT_3D ( 'NONE', #87, #154, #152 ) ;
#125 = CIRCLE ( 'NONE', #179, 25.39999999999999858 ) ;
#126 = APPROVAL_DATE_TIME ( #96, #18 ) ;
#127 = APPROVAL_ROLE ( '' ) ;
#128 = CC_DESIGN_PERSON_AND_ORGANIZATION_ASSIGNMENT ( #44, #191, ( #143 ) ) ;
#129 = DATE_TIME_ROLE ( 'creation_date' ) ;
#130 = VERTEX_POINT ( 'NONE', #169 ) ;
#131 = VERTEX_POINT ( 'NONE', #35 ) ;
#132 = ORIENTED_EDGE ( 'NONE', *, *, #173, .F. ) ;
#133 = DIRECTION ( 'NONE',  ( 1.000000000000000000, 0.000000000000000000, -0.000000000000000000 ) ) ;
#134 = CARTESIAN_POINT ( 'NONE',  ( 0.000000000000000000, 0.000000000000000000, 0.000000000000000000 ) ) ;
#135 = CARTESIAN_POINT ( 'NONE',  ( 7.632783294297951215E-14, 0.000000000000000000, 609.4621255759199130 ) ) ;
#136 = PLANE ( 'NONE',  #201 ) ;
#137 = ADVANCED_FACE ( 'NONE', ( #197 ), #103, .T. ) ;
#138 = LOCAL_TIME ( 15, 4, 1.000000000000000000, #31 ) ;
#139 = APPROVAL_PERSON_ORGANIZATION ( #29, #18, #171 ) ;
#140 = ADVANCED_BREP_SHAPE_REPRESENTATION ( '010-0507E_N-BK7_PCV_window', ( #177, #102 ), #64 ) ;
#141 = APPROVAL_DATE_TIME ( #13, #190 ) ;
#142 = AXIS2_PLACEMENT_3D ( 'NONE', #188, #108, #153 ) ;
#143 = PRODUCT_DEFINITION ( 'UNKNOWN', '', #71, #158 ) ;
#144 = DATE_AND_TIME ( #175, #164 ) ;
#145 = COORDINATED_UNIVERSAL_TIME_OFFSET ( 2, 0, .AHEAD. ) ;
#146 = DATE_AND_TIME ( #40, #138 ) ;
#147 = CC_DESIGN_PERSON_AND_ORGANIZATION_ASSIGNMENT ( #97, #38, ( #58 ) ) ;
#148 = ORIENTED_EDGE ( 'NONE', *, *, #200, .T. ) ;
#149 = APPLICATION_CONTEXT ( 'configuration controlled 3d designs of mechanical parts and assemblies' ) ;
#150 = VERTEX_POINT ( 'NONE', #199 ) ;
#151 = DIRECTION ( 'NONE',  ( -0.000000000000000000, -0.000000000000000000, -1.000000000000000000 ) ) ;
#152 = DIRECTION ( 'NONE',  ( -1.000000000000000000, 0.000000000000000000, 0.000000000000000000 ) ) ;
#153 = DIRECTION ( 'NONE',  ( 0.000000000000000000, 0.000000000000000000, 1.000000000000000000 ) ) ;
#154 = DIRECTION ( 'NONE',  ( -0.000000000000000000, -0.000000000000000000, -1.000000000000000000 ) ) ;
#155 = CIRCLE ( 'NONE', #10, 25.39999999999999858 ) ;
#156 = DIRECTION ( 'NONE',  ( 1.000000000000000000, 0.000000000000000000, 0.000000000000000000 ) ) ;
#157 = DIRECTION ( 'NONE',  ( -0.000000000000000000, -0.000000000000000000, -1.000000000000000000 ) ) ;
#158 = DESIGN_CONTEXT ( 'detailed design', #76, 'design' ) ;
#159 = CC_DESIGN_SECURITY_CLASSIFICATION ( #174, ( #71 ) ) ;
#160 = AXIS2_PLACEMENT_3D ( 'NONE', #7, #86, #68 ) ;
#161 = DATE_AND_TIME ( #192, #83 ) ;
#162 = SHAPE_DEFINITION_REPRESENTATION ( #45, #140 ) ;
#163 = DIRECTION ( 'NONE',  ( 0.000000000000000000, 0.000000000000000000, 1.000000000000000000 ) ) ;
#164 = LOCAL_TIME ( 15, 4, 1.000000000000000000, #43 ) ;
#165 = ORIENTED_EDGE ( 'NONE', *, *, #187, .T. ) ;
#166 = DIRECTION ( 'NONE',  ( -0.000000000000000000, -0.000000000000000000, -1.000000000000000000 ) ) ;
#167 = DIRECTION ( 'NONE',  ( 0.000000000000000000, -1.000000000000000000, -0.000000000000000000 ) ) ;
#168 = LINE ( 'NONE', #24, #110 ) ;
#169 = CARTESIAN_POINT ( 'NONE',  ( 25.39999999999999858, 3.110602869834276865E-15, 0.000000000000000000 ) ) ;
#170 = PRODUCT_RELATED_PRODUCT_CATEGORY ( 'detail', '', ( #58 ) ) ;
#171 = APPROVAL_ROLE ( '' ) ;
#172 = CALENDAR_DATE ( 2021, 25, 2 ) ;
#173 = EDGE_CURVE ( 'NONE', #150, #131, #189, .T. ) ;
#174 = SECURITY_CLASSIFICATION ( '', '', #57 ) ;
#175 = CALENDAR_DATE ( 2021, 25, 2 ) ;
#176 = PERSON_AND_ORGANIZATION ( #60, #82 ) ;
#177 = MANIFOLD_SOLID_BREP ( 'Cut-Revolve1', #198 ) ;
#178 = EDGE_LOOP ( 'NONE', ( #34, #19, #194, #49 ) ) ;
#179 = AXIS2_PLACEMENT_3D ( 'NONE', #184, #21, #156 ) ;
#180 =( NAMED_UNIT ( * ) SI_UNIT ( $, .STERADIAN. ) SOLID_ANGLE_UNIT ( ) );
#181 = ORIENTED_EDGE ( 'NONE', *, *, #59, .F. ) ;
#182 = ADVANCED_FACE ( 'NONE', ( #69 ), #121, .F. ) ;
#183 = SPHERICAL_SURFACE ( 'NONE', #90, 599.9999999999998863 ) ;
#184 = CARTESIAN_POINT ( 'NONE',  ( 0.000000000000000000, 0.000000000000000000, 0.000000000000000000 ) ) ;
#185 = CARTESIAN_POINT ( 'NONE',  ( 7.632783294297951215E-14, 0.000000000000000000, 10.00000000000000888 ) ) ;
#186 = APPROVAL_ROLE ( '' ) ;
#187 = EDGE_CURVE ( 'NONE', #131, #6, #56, .T. ) ;
#188 = CARTESIAN_POINT ( 'NONE',  ( 7.632783294297951215E-14, 0.000000000000000000, 609.4621255759199130 ) ) ;
#189 = CIRCLE ( 'NONE', #14, 25.39999999999628599 ) ;
#190 = APPROVAL ( #27, 'UNSPECIFIED' ) ;
#191 = PERSON_AND_ORGANIZATION_ROLE ( 'creator' ) ;
#192 = CALENDAR_DATE ( 2021, 25, 2 ) ;
#193 = ADVANCED_FACE ( 'NONE', ( #54 ), #8, .T. ) ;
#194 = ORIENTED_EDGE ( 'NONE', *, *, #88, .T. ) ;
#195 = CARTESIAN_POINT ( 'NONE',  ( 1.130672369174001071E-13, 0.000000000000000000, 9.462125575920076415 ) ) ;
#196 = FACE_OUTER_BOUND ( 'NONE', #5, .T. ) ;
#197 = FACE_OUTER_BOUND ( 'NONE', #178, .T. ) ;
#198 = CLOSED_SHELL ( 'NONE', ( #182, #137, #193, #105, #94 ) ) ;
#199 = CARTESIAN_POINT ( 'NONE',  ( 25.39999999999636415, 3.110602869834054406E-15, 10.00000000000000888 ) ) ;
#200 = EDGE_CURVE ( 'NONE', #131, #81, #33, .T. ) ;
#201 = AXIS2_PLACEMENT_3D ( 'NONE', #25, #11, #133 ) ;
ENDSEC;
END-ISO-10303-21;
