ISO-10303-21;
HEADER;
FILE_DESCRIPTION (( 'STEP AP203' ),
    '1' );
FILE_NAME ('010-0506E_N-BK7_PCV_window.STEP',
    '2021-02-25T12:59:06',
    ( '' ),
    ( '' ),
    'SwSTEP 2.0',
    'SolidWorks 2019',
    '' );
FILE_SCHEMA (( 'CONFIG_CONTROL_DESIGN' ));
ENDSEC;

DATA;
#1 = FACE_OUTER_BOUND ( 'NONE', #198, .T. ) ;
#2 = DIRECTION ( 'NONE',  ( 0.000000000000000000, -1.000000000000000000, -0.000000000000000000 ) ) ;
#3 = AXIS2_PLACEMENT_3D ( 'NONE', #96, #113, #157 ) ;
#4 =( LENGTH_UNIT ( ) NAMED_UNIT ( * ) SI_UNIT ( .MILLI., .METRE. ) );
#5 = EDGE_CURVE ( 'NONE', #9, #125, #132, .T. ) ;
#6 = AXIS2_PLACEMENT_3D ( 'NONE', #192, #100, #177 ) ;
#7 = EDGE_CURVE ( 'NONE', #9, #23, #136, .T. ) ;
#8 = ORIENTED_EDGE ( 'NONE', *, *, #7, .F. ) ;
#9 = VERTEX_POINT ( 'NONE', #42 ) ;
#10 = PERSON_AND_ORGANIZATION ( #176, #58 ) ;
#11 = DATE_AND_TIME ( #124, #166 ) ;
#12 =( NAMED_UNIT ( * ) PLANE_ANGLE_UNIT ( ) SI_UNIT ( $, .RADIAN. ) );
#13 = DIRECTION ( 'NONE',  ( -0.000000000000000000, -0.000000000000000000, -1.000000000000000000 ) ) ;
#14 = PERSON_AND_ORGANIZATION_ROLE ( 'creator' ) ;
#15 = APPROVAL_STATUS ( 'not_yet_approved' ) ;
#16 = APPROVAL_DATE_TIME ( #158, #164 ) ;
#17 = CARTESIAN_POINT ( 'NONE',  ( 25.39999999999999858, 3.110602869834276865E-15, 0.000000000000000000 ) ) ;
#18 = AXIS2_PLACEMENT_3D ( 'NONE', #53, #154, #37 ) ;
#19 = CARTESIAN_POINT ( 'NONE',  ( 4.163336342344337027E-14, 0.000000000000000000, 10.00000000000000888 ) ) ;
#20 = APPROVAL_PERSON_ORGANIZATION ( #79, #173, #29 ) ;
#21 = DIRECTION ( 'NONE',  ( 1.224646799147353207E-16, -1.000000000000000000, 0.000000000000000000 ) ) ;
#22 = PERSON_AND_ORGANIZATION ( #176, #58 ) ;
#23 = VERTEX_POINT ( 'NONE', #88 ) ;
#24 = CALENDAR_DATE ( 2021, 25, 2 ) ;
#25 = DIRECTION ( 'NONE',  ( 1.000000000000000000, 0.000000000000000000, 0.000000000000000000 ) ) ;
#26 = LOCAL_TIME ( 14, 59, 6.000000000000000000, #172 ) ;
#27 = EDGE_CURVE ( 'NONE', #23, #9, #134, .T. ) ;
#28 = CARTESIAN_POINT ( 'NONE',  ( 4.163336342344337027E-14, 0.000000000000000000, 308.9227993981054396 ) ) ;
#29 = APPROVAL_ROLE ( '' ) ;
#30 = ADVANCED_BREP_SHAPE_REPRESENTATION ( '010-0506E_N-BK7_PCV_window', ( #86, #6 ), #120 ) ;
#31 = CARTESIAN_POINT ( 'NONE',  ( 4.163336342344337027E-14, 0.000000000000000000, 308.9227993981054396 ) ) ;
#32 = AXIS2_PLACEMENT_3D ( 'NONE', #108, #104, #123 ) ;
#33 = CC_DESIGN_PERSON_AND_ORGANIZATION_ASSIGNMENT ( #82, #14, ( #97 ) ) ;
#34 = APPLICATION_PROTOCOL_DEFINITION ( 'international standard', 'config_control_design', 1994, #69 ) ;
#35 = AXIS2_PLACEMENT_3D ( 'NONE', #171, #186, #142 ) ;
#36 = ORIENTED_EDGE ( 'NONE', *, *, #66, .T. ) ;
#37 = DIRECTION ( 'NONE',  ( 0.000000000000000000, 0.000000000000000000, 1.000000000000000000 ) ) ;
#38 = EDGE_CURVE ( 'NONE', #23, #125, #118, .T. ) ;
#39 = CIRCLE ( 'NONE', #67, 25.39999999999999858 ) ;
#40 = LINE ( 'NONE', #90, #51 ) ;
#41 = CALENDAR_DATE ( 2021, 25, 2 ) ;
#42 = CARTESIAN_POINT ( 'NONE',  ( 25.40000000000015845, 3.110602869834296192E-15, 10.00000000000000888 ) ) ;
#43 = ORIENTED_EDGE ( 'NONE', *, *, #133, .T. ) ;
#44 = COORDINATED_UNIVERSAL_TIME_OFFSET ( 2, 0, .AHEAD. ) ;
#45 = CIRCLE ( 'NONE', #3, 25.39999999999999858 ) ;
#46 = MECHANICAL_CONTEXT ( 'NONE', #110, 'mechanical' ) ;
#47 = APPROVAL_DATE_TIME ( #114, #173 ) ;
#48 = PLANE ( 'NONE',  #193 ) ;
#49 = CALENDAR_DATE ( 2021, 25, 2 ) ;
#50 = CARTESIAN_POINT ( 'NONE',  ( 0.000000000000000000, 0.000000000000000000, 10.00000000000000000 ) ) ;
#51 = VECTOR ( 'NONE', #152, 1000.000000000000000 ) ;
#52 =( NAMED_UNIT ( * ) SI_UNIT ( $, .STERADIAN. ) SOLID_ANGLE_UNIT ( ) );
#53 = CARTESIAN_POINT ( 'NONE',  ( 4.163336342344337027E-14, 0.000000000000000000, 308.9227993981054396 ) ) ;
#54 = CC_DESIGN_DATE_AND_TIME_ASSIGNMENT ( #138, #155, ( #97 ) ) ;
#55 = ORIENTED_EDGE ( 'NONE', *, *, #85, .F. ) ;
#56 = DESIGN_CONTEXT ( 'detailed design', #69, 'design' ) ;
#57 = PERSON_AND_ORGANIZATION ( #176, #58 ) ;
#58 = ORGANIZATION ( 'UNSPECIFIED', 'UNSPECIFIED', '' ) ;
#59 = ORIENTED_EDGE ( 'NONE', *, *, #133, .F. ) ;
#60 = CC_DESIGN_PERSON_AND_ORGANIZATION_ASSIGNMENT ( #57, #80, ( #146 ) ) ;
#61 = ORIENTED_EDGE ( 'NONE', *, *, #27, .F. ) ;
#62 = APPROVAL_STATUS ( 'not_yet_approved' ) ;
#63 = FACE_OUTER_BOUND ( 'NONE', #139, .T. ) ;
#64 = DATE_AND_TIME ( #49, #26 ) ;
#65 = AXIS2_PLACEMENT_3D ( 'NONE', #50, #115, #159 ) ;
#66 = EDGE_CURVE ( 'NONE', #9, #75, #40, .T. ) ;
#67 = AXIS2_PLACEMENT_3D ( 'NONE', #169, #95, #81 ) ;
#68 = EDGE_CURVE ( 'NONE', #23, #150, #168, .T. ) ;
#69 = APPLICATION_CONTEXT ( 'configuration controlled 3d designs of mechanical parts and assemblies' ) ;
#70 = ORIENTED_EDGE ( 'NONE', *, *, #85, .T. ) ;
#71 = AXIS2_PLACEMENT_3D ( 'NONE', #31, #2, #190 ) ;
#72 = EDGE_LOOP ( 'NONE', ( #103, #36, #43, #200 ) ) ;
#73 = ADVANCED_FACE ( 'NONE', ( #78 ), #188, .F. ) ;
#74 = PERSON_AND_ORGANIZATION ( #176, #58 ) ;
#75 = VERTEX_POINT ( 'NONE', #17 ) ;
#76 = PERSON_AND_ORGANIZATION_ROLE ( 'design_supplier' ) ;
#77 = PRODUCT_DEFINITION_FORMATION_WITH_SPECIFIED_SOURCE ( 'ANY', '', #178, .NOT_KNOWN. ) ;
#78 = FACE_OUTER_BOUND ( 'NONE', #135, .T. ) ;
#79 = PERSON_AND_ORGANIZATION ( #176, #58 ) ;
#80 = PERSON_AND_ORGANIZATION_ROLE ( 'classification_officer' ) ;
#81 = DIRECTION ( 'NONE',  ( 1.000000000000000000, 0.000000000000000000, 0.000000000000000000 ) ) ;
#82 = PERSON_AND_ORGANIZATION ( #176, #58 ) ;
#83 = CARTESIAN_POINT ( 'NONE',  ( 6.000306541065366773E-14, 0.000000000000000000, 8.922799398105475177 ) ) ;
#84 = VECTOR ( 'NONE', #13, 1000.000000000000000 ) ;
#85 = EDGE_CURVE ( 'NONE', #150, #75, #45, .T. ) ;
#86 = MANIFOLD_SOLID_BREP ( 'Cut-Revolve1', #182 ) ;
#87 = CC_DESIGN_APPROVAL ( #164, ( #97 ) ) ;
#88 = CARTESIAN_POINT ( 'NONE',  ( -25.40000000000007319, 0.000000000000000000, 10.00000000000000888 ) ) ;
#89 = CC_DESIGN_PERSON_AND_ORGANIZATION_ASSIGNMENT ( #22, #107, ( #77 ) ) ;
#90 = CARTESIAN_POINT ( 'NONE',  ( 25.39999999999999858, 3.110602869834276865E-15, 10.00000000000000000 ) ) ;
#91 = APPROVAL ( #62, 'UNSPECIFIED' ) ;
#92 = APPROVAL_ROLE ( '' ) ;
#93 = CARTESIAN_POINT ( 'NONE',  ( -25.39999999999999858, 0.000000000000000000, 10.00000000000000000 ) ) ;
#94 = SECURITY_CLASSIFICATION_LEVEL ( 'unclassified' ) ;
#95 = DIRECTION ( 'NONE',  ( 0.000000000000000000, 0.000000000000000000, 1.000000000000000000 ) ) ;
#96 = CARTESIAN_POINT ( 'NONE',  ( 0.000000000000000000, 0.000000000000000000, 0.000000000000000000 ) ) ;
#97 = PRODUCT_DEFINITION ( 'UNKNOWN', '', #77, #56 ) ;
#98 = CYLINDRICAL_SURFACE ( 'NONE', #65, 25.39999999999999858 ) ;
#99 = PRODUCT_DEFINITION_SHAPE ( 'NONE', 'NONE',  #97 ) ;
#100 = DIRECTION ( 'NONE',  ( 0.000000000000000000, 0.000000000000000000, 1.000000000000000000 ) ) ;
#101 = AXIS2_PLACEMENT_3D ( 'NONE', #19, #183, #194 ) ;
#102 = CC_DESIGN_PERSON_AND_ORGANIZATION_ASSIGNMENT ( #10, #121, ( #178 ) ) ;
#103 = ORIENTED_EDGE ( 'NONE', *, *, #27, .T. ) ;
#104 = DIRECTION ( 'NONE',  ( -0.000000000000000000, -0.000000000000000000, -1.000000000000000000 ) ) ;
#105 = CC_DESIGN_APPROVAL ( #173, ( #77 ) ) ;
#106 = EDGE_LOOP ( 'NONE', ( #55, #59 ) ) ;
#107 = PERSON_AND_ORGANIZATION_ROLE ( 'creator' ) ;
#108 = CARTESIAN_POINT ( 'NONE',  ( 4.163336342344337027E-14, 0.000000000000000000, 10.00000000000000888 ) ) ;
#109 = APPROVAL_DATE_TIME ( #11, #91 ) ;
#110 = APPLICATION_CONTEXT ( 'configuration controlled 3d designs of mechanical parts and assemblies' ) ;
#111 = DIRECTION ( 'NONE',  ( 0.000000000000000000, -1.000000000000000000, -0.000000000000000000 ) ) ;
#112 = UNCERTAINTY_MEASURE_WITH_UNIT (LENGTH_MEASURE( 1.000000000000000082E-05 ), #4, 'distance_accuracy_value', 'NONE');
#113 = DIRECTION ( 'NONE',  ( 0.000000000000000000, 0.000000000000000000, 1.000000000000000000 ) ) ;
#114 = DATE_AND_TIME ( #24, #199 ) ;
#115 = DIRECTION ( 'NONE',  ( -0.000000000000000000, -0.000000000000000000, -1.000000000000000000 ) ) ;
#116 = CARTESIAN_POINT ( 'NONE',  ( -25.39999999999999858, 0.000000000000000000, 0.000000000000000000 ) ) ;
#117 = SPHERICAL_SURFACE ( 'NONE', #71, 300.0000000000000000 ) ;
#118 = CIRCLE ( 'NONE', #140, 300.0000000000000000 ) ;
#119 = APPLICATION_PROTOCOL_DEFINITION ( 'international standard', 'config_control_design', 1994, #110 ) ;
#120 =( GEOMETRIC_REPRESENTATION_CONTEXT ( 3 ) GLOBAL_UNCERTAINTY_ASSIGNED_CONTEXT ( ( #112 ) ) GLOBAL_UNIT_ASSIGNED_CONTEXT ( ( #4, #12, #52 ) ) REPRESENTATION_CONTEXT ( 'NONE', 'WORKASPACE' ) );
#121 = PERSON_AND_ORGANIZATION_ROLE ( 'design_owner' ) ;
#122 = LOCAL_TIME ( 14, 59, 6.000000000000000000, #170 ) ;
#123 = DIRECTION ( 'NONE',  ( 1.000000000000000000, 0.000000000000000000, 0.000000000000000000 ) ) ;
#124 = CALENDAR_DATE ( 2021, 25, 2 ) ;
#125 = VERTEX_POINT ( 'NONE', #83 ) ;
#126 = CALENDAR_DATE ( 2021, 25, 2 ) ;
#127 = FACE_OUTER_BOUND ( 'NONE', #106, .T. ) ;
#128 = CYLINDRICAL_SURFACE ( 'NONE', #35, 25.39999999999999858 ) ;
#129 = DATE_TIME_ROLE ( 'classification_date' ) ;
#130 = FACE_OUTER_BOUND ( 'NONE', #72, .T. ) ;
#131 = CC_DESIGN_DATE_AND_TIME_ASSIGNMENT ( #64, #129, ( #146 ) ) ;
#132 = CIRCLE ( 'NONE', #18, 300.0000000000000000 ) ;
#133 = EDGE_CURVE ( 'NONE', #75, #150, #39, .T. ) ;
#134 = CIRCLE ( 'NONE', #32, 25.40000000000011227 ) ;
#135 = EDGE_LOOP ( 'NONE', ( #61, #151, #137 ) ) ;
#136 = CIRCLE ( 'NONE', #101, 25.40000000000011227 ) ;
#137 = ORIENTED_EDGE ( 'NONE', *, *, #5, .F. ) ;
#138 = DATE_AND_TIME ( #41, #122 ) ;
#139 = EDGE_LOOP ( 'NONE', ( #179, #8, #163 ) ) ;
#140 = AXIS2_PLACEMENT_3D ( 'NONE', #165, #21, #181 ) ;
#141 = ADVANCED_FACE ( 'NONE', ( #127 ), #48, .F. ) ;
#142 = DIRECTION ( 'NONE',  ( -1.000000000000000000, 0.000000000000000000, 0.000000000000000000 ) ) ;
#143 = SHAPE_DEFINITION_REPRESENTATION ( #99, #30 ) ;
#144 = DIRECTION ( 'NONE',  ( 1.000000000000000000, 0.000000000000000000, -0.000000000000000000 ) ) ;
#145 = APPROVAL_ROLE ( '' ) ;
#146 = SECURITY_CLASSIFICATION ( '', '', #94 ) ;
#147 = APPROVAL_STATUS ( 'not_yet_approved' ) ;
#148 = CC_DESIGN_SECURITY_CLASSIFICATION ( #146, ( #77 ) ) ;
#149 = AXIS2_PLACEMENT_3D ( 'NONE', #28, #111, #25 ) ;
#150 = VERTEX_POINT ( 'NONE', #116 ) ;
#151 = ORIENTED_EDGE ( 'NONE', *, *, #38, .T. ) ;
#152 = DIRECTION ( 'NONE',  ( -0.000000000000000000, -0.000000000000000000, -1.000000000000000000 ) ) ;
#153 = PERSON_AND_ORGANIZATION ( #176, #58 ) ;
#154 = DIRECTION ( 'NONE',  ( 0.000000000000000000, 1.000000000000000000, -0.000000000000000000 ) ) ;
#155 = DATE_TIME_ROLE ( 'creation_date' ) ;
#156 = CARTESIAN_POINT ( 'NONE',  ( 0.000000000000000000, 0.000000000000000000, 0.000000000000000000 ) ) ;
#157 = DIRECTION ( 'NONE',  ( 1.000000000000000000, 0.000000000000000000, 0.000000000000000000 ) ) ;
#158 = DATE_AND_TIME ( #126, #161 ) ;
#159 = DIRECTION ( 'NONE',  ( -1.000000000000000000, 0.000000000000000000, 0.000000000000000000 ) ) ;
#160 = CC_DESIGN_PERSON_AND_ORGANIZATION_ASSIGNMENT ( #153, #76, ( #77 ) ) ;
#161 = LOCAL_TIME ( 14, 59, 6.000000000000000000, #44 ) ;
#162 = ORIENTED_EDGE ( 'NONE', *, *, #66, .F. ) ;
#163 = ORIENTED_EDGE ( 'NONE', *, *, #5, .T. ) ;
#164 = APPROVAL ( #147, 'UNSPECIFIED' ) ;
#165 = CARTESIAN_POINT ( 'NONE',  ( 4.163336342344337027E-14, 0.000000000000000000, 308.9227993981054396 ) ) ;
#166 = LOCAL_TIME ( 14, 59, 6.000000000000000000, #185 ) ;
#167 = PERSON_AND_ORGANIZATION ( #176, #58 ) ;
#168 = LINE ( 'NONE', #93, #84 ) ;
#169 = CARTESIAN_POINT ( 'NONE',  ( 0.000000000000000000, 0.000000000000000000, 0.000000000000000000 ) ) ;
#170 = COORDINATED_UNIVERSAL_TIME_OFFSET ( 2, 0, .AHEAD. ) ;
#171 = CARTESIAN_POINT ( 'NONE',  ( 0.000000000000000000, 0.000000000000000000, 10.00000000000000000 ) ) ;
#172 = COORDINATED_UNIVERSAL_TIME_OFFSET ( 2, 0, .AHEAD. ) ;
#173 = APPROVAL ( #15, 'UNSPECIFIED' ) ;
#174 = APPROVAL_PERSON_ORGANIZATION ( #74, #164, #92 ) ;
#175 = ADVANCED_FACE ( 'NONE', ( #1 ), #128, .T. ) ;
#176 = PERSON ( 'UNSPECIFIED', 'UNSPECIFIED', 'UNSPECIFIED', ('UNSPECIFIED'), ('UNSPECIFIED'), ('UNSPECIFIED') ) ;
#177 = DIRECTION ( 'NONE',  ( 1.000000000000000000, 0.000000000000000000, 0.000000000000000000 ) ) ;
#178 = PRODUCT ( '010-0506E_N-BK7_PCV_window', '010-0506E_N-BK7_PCV_window', '', ( #46 ) ) ;
#179 = ORIENTED_EDGE ( 'NONE', *, *, #38, .F. ) ;
#180 = ADVANCED_FACE ( 'NONE', ( #63 ), #117, .F. ) ;
#181 = DIRECTION ( 'NONE',  ( 1.000000000000000000, 1.224646799147353207E-16, 0.000000000000000000 ) ) ;
#182 = CLOSED_SHELL ( 'NONE', ( #73, #195, #175, #141, #180 ) ) ;
#183 = DIRECTION ( 'NONE',  ( -0.000000000000000000, -0.000000000000000000, -1.000000000000000000 ) ) ;
#184 = ORIENTED_EDGE ( 'NONE', *, *, #68, .T. ) ;
#185 = COORDINATED_UNIVERSAL_TIME_OFFSET ( 2, 0, .AHEAD. ) ;
#186 = DIRECTION ( 'NONE',  ( -0.000000000000000000, -0.000000000000000000, -1.000000000000000000 ) ) ;
#187 = CC_DESIGN_APPROVAL ( #91, ( #146 ) ) ;
#188 = SPHERICAL_SURFACE ( 'NONE', #149, 300.0000000000000000 ) ;
#189 = PRODUCT_RELATED_PRODUCT_CATEGORY ( 'detail', '', ( #178 ) ) ;
#190 = DIRECTION ( 'NONE',  ( 1.000000000000000000, 0.000000000000000000, 0.000000000000000000 ) ) ;
#191 = APPROVAL_PERSON_ORGANIZATION ( #167, #91, #145 ) ;
#192 = CARTESIAN_POINT ( 'NONE',  ( 0.000000000000000000, 0.000000000000000000, 0.000000000000000000 ) ) ;
#193 = AXIS2_PLACEMENT_3D ( 'NONE', #156, #201, #144 ) ;
#194 = DIRECTION ( 'NONE',  ( 1.000000000000000000, 0.000000000000000000, 0.000000000000000000 ) ) ;
#195 = ADVANCED_FACE ( 'NONE', ( #130 ), #98, .T. ) ;
#196 = ORIENTED_EDGE ( 'NONE', *, *, #7, .T. ) ;
#197 = COORDINATED_UNIVERSAL_TIME_OFFSET ( 2, 0, .AHEAD. ) ;
#198 = EDGE_LOOP ( 'NONE', ( #162, #196, #184, #70 ) ) ;
#199 = LOCAL_TIME ( 14, 59, 6.000000000000000000, #197 ) ;
#200 = ORIENTED_EDGE ( 'NONE', *, *, #68, .F. ) ;
#201 = DIRECTION ( 'NONE',  ( 0.000000000000000000, 0.000000000000000000, 1.000000000000000000 ) ) ;
ENDSEC;
END-ISO-10303-21;
