ISO-10303-21;
HEADER;
FILE_DESCRIPTION (( 'STEP AP203' ),
    '1' );
FILE_NAME ('010-0505E_N-BK7_PCV_window.STEP',
    '2021-02-25T13:03:06',
    ( '' ),
    ( '' ),
    'SwSTEP 2.0',
    'SolidWorks 2019',
    '' );
FILE_SCHEMA (( 'CONFIG_CONTROL_DESIGN' ));
ENDSEC;

DATA;
#1 = EDGE_LOOP ( 'NONE', ( #174, #45, #150, #86 ) ) ;
#2 = CC_DESIGN_PERSON_AND_ORGANIZATION_ASSIGNMENT ( #10, #74, ( #188 ) ) ;
#3 = ORIENTED_EDGE ( 'NONE', *, *, #122, .T. ) ;
#4 = LINE ( 'NONE', #180, #68 ) ;
#5 = DIRECTION ( 'NONE',  ( 0.000000000000000000, 0.000000000000000000, 1.000000000000000000 ) ) ;
#6 = CC_DESIGN_APPROVAL ( #96, ( #22 ) ) ;
#7 = EDGE_CURVE ( 'NONE', #154, #14, #179, .T. ) ;
#8 = CIRCLE ( 'NONE', #54, 500.0000000000000000 ) ;
#9 = AXIS2_PLACEMENT_3D ( 'NONE', #194, #5, #35 ) ;
#10 = PERSON_AND_ORGANIZATION ( #99, #149 ) ;
#11 = APPROVAL_DATE_TIME ( #151, #178 ) ;
#12 = CC_DESIGN_DATE_AND_TIME_ASSIGNMENT ( #115, #175, ( #133 ) ) ;
#13 = CALENDAR_DATE ( 2021, 25, 2 ) ;
#14 = VERTEX_POINT ( 'NONE', #18 ) ;
#15 = APPROVAL_DATE_TIME ( #79, #88 ) ;
#16 = ORIENTED_EDGE ( 'NONE', *, *, #7, .F. ) ;
#17 = DATE_TIME_ROLE ( 'classification_date' ) ;
#18 = CARTESIAN_POINT ( 'NONE',  ( 25.39999999999999858, 3.110602869834276865E-15, 0.000000000000000000 ) ) ;
#19 = DIRECTION ( 'NONE',  ( -1.000000000000000000, 0.000000000000000000, 0.000000000000000000 ) ) ;
#20 = CARTESIAN_POINT ( 'NONE',  ( 6.591949208711866959E-14, 0.000000000000000000, 509.3544232306348363 ) ) ;
#21 = EDGE_LOOP ( 'NONE', ( #67, #193, #169 ) ) ;
#22 = PRODUCT_DEFINITION_FORMATION_WITH_SPECIFIED_SOURCE ( 'ANY', '', #188, .NOT_KNOWN. ) ;
#23 = CC_DESIGN_APPROVAL ( #88, ( #156 ) ) ;
#24 = CC_DESIGN_PERSON_AND_ORGANIZATION_ASSIGNMENT ( #100, #130, ( #22 ) ) ;
#25 = DIRECTION ( 'NONE',  ( -0.000000000000000000, -0.000000000000000000, -1.000000000000000000 ) ) ;
#26 = CARTESIAN_POINT ( 'NONE',  ( 6.591949208711866959E-14, 0.000000000000000000, 509.3544232306348363 ) ) ;
#27 = CIRCLE ( 'NONE', #9, 25.39999999999999858 ) ;
#28 = ORIENTED_EDGE ( 'NONE', *, *, #183, .T. ) ;
#29 = APPLICATION_PROTOCOL_DEFINITION ( 'international standard', 'config_control_design', 1994, #106 ) ;
#30 = COORDINATED_UNIVERSAL_TIME_OFFSET ( 2, 0, .AHEAD. ) ;
#31 = PERSON_AND_ORGANIZATION_ROLE ( 'classification_officer' ) ;
#32 = EDGE_LOOP ( 'NONE', ( #16, #184 ) ) ;
#33 = CC_DESIGN_PERSON_AND_ORGANIZATION_ASSIGNMENT ( #189, #48, ( #22 ) ) ;
#34 = APPROVAL_ROLE ( '' ) ;
#35 = DIRECTION ( 'NONE',  ( 1.000000000000000000, 0.000000000000000000, 0.000000000000000000 ) ) ;
#36 = CARTESIAN_POINT ( 'NONE',  ( 0.000000000000000000, 0.000000000000000000, 0.000000000000000000 ) ) ;
#37 = DIRECTION ( 'NONE',  ( 1.000000000000000000, 0.000000000000000000, 0.000000000000000000 ) ) ;
#38 = PRODUCT_RELATED_PRODUCT_CATEGORY ( 'detail', '', ( #188 ) ) ;
#39 = DIRECTION ( 'NONE',  ( 0.000000000000000000, 0.000000000000000000, 1.000000000000000000 ) ) ;
#40 = EDGE_CURVE ( 'NONE', #55, #14, #53, .T. ) ;
#41 = CARTESIAN_POINT ( 'NONE',  ( -25.39999999999999858, 0.000000000000000000, 0.000000000000000000 ) ) ;
#42 = MANIFOLD_SOLID_BREP ( 'Cut-Revolve1', #153 ) ;
#43 =( NAMED_UNIT ( * ) PLANE_ANGLE_UNIT ( ) SI_UNIT ( $, .RADIAN. ) );
#44 = LOCAL_TIME ( 15, 3, 6.000000000000000000, #118 ) ;
#45 = ORIENTED_EDGE ( 'NONE', *, *, #168, .T. ) ;
#46 = DIRECTION ( 'NONE',  ( 1.000000000000000000, 0.000000000000000000, -0.000000000000000000 ) ) ;
#47 = ADVANCED_FACE ( 'NONE', ( #119 ), #85, .T. ) ;
#48 = PERSON_AND_ORGANIZATION_ROLE ( 'creator' ) ;
#49 = CALENDAR_DATE ( 2021, 25, 2 ) ;
#50 = LOCAL_TIME ( 15, 3, 6.000000000000000000, #185 ) ;
#51 = DIRECTION ( 'NONE',  ( 0.000000000000000000, 0.000000000000000000, 1.000000000000000000 ) ) ;
#52 = DIRECTION ( 'NONE',  ( -1.000000000000000000, 0.000000000000000000, 0.000000000000000000 ) ) ;
#53 = LINE ( 'NONE', #132, #148 ) ;
#54 = AXIS2_PLACEMENT_3D ( 'NONE', #20, #146, #51 ) ;
#55 = VERTEX_POINT ( 'NONE', #87 ) ;
#56 = EDGE_CURVE ( 'NONE', #145, #154, #4, .T. ) ;
#57 = DIRECTION ( 'NONE',  ( 1.000000000000000000, 0.000000000000000000, 0.000000000000000000 ) ) ;
#58 = UNCERTAINTY_MEASURE_WITH_UNIT (LENGTH_MEASURE( 1.000000000000000082E-05 ), #125, 'distance_accuracy_value', 'NONE');
#59 =( NAMED_UNIT ( * ) SI_UNIT ( $, .STERADIAN. ) SOLID_ANGLE_UNIT ( ) );
#60 = DIRECTION ( 'NONE',  ( 1.224646799147353207E-16, -1.000000000000000000, 0.000000000000000000 ) ) ;
#61 = DIRECTION ( 'NONE',  ( 1.000000000000000000, 0.000000000000000000, 0.000000000000000000 ) ) ;
#62 = SECURITY_CLASSIFICATION_LEVEL ( 'unclassified' ) ;
#63 = DATE_AND_TIME ( #13, #109 ) ;
#64 = ADVANCED_FACE ( 'NONE', ( #120 ), #159, .F. ) ;
#65 = VERTEX_POINT ( 'NONE', #176 ) ;
#66 = CARTESIAN_POINT ( 'NONE',  ( 0.000000000000000000, 0.000000000000000000, 0.000000000000000000 ) ) ;
#67 = ORIENTED_EDGE ( 'NONE', *, *, #183, .F. ) ;
#68 = VECTOR ( 'NONE', #162, 1000.000000000000000 ) ;
#69 = APPROVAL_PERSON_ORGANIZATION ( #158, #88, #155 ) ;
#70 = ADVANCED_FACE ( 'NONE', ( #104 ), #161, .T. ) ;
#71 = DIRECTION ( 'NONE',  ( 1.000000000000000000, 0.000000000000000000, 0.000000000000000000 ) ) ;
#72 = DIRECTION ( 'NONE',  ( 0.000000000000000000, 0.000000000000000000, 1.000000000000000000 ) ) ;
#73 = CARTESIAN_POINT ( 'NONE',  ( 6.591949208711866959E-14, 0.000000000000000000, 509.3544232306348363 ) ) ;
#74 = PERSON_AND_ORGANIZATION_ROLE ( 'design_owner' ) ;
#75 = CC_DESIGN_SECURITY_CLASSIFICATION ( #156, ( #22 ) ) ;
#76 = PERSON_AND_ORGANIZATION ( #99, #149 ) ;
#77 = COORDINATED_UNIVERSAL_TIME_OFFSET ( 2, 0, .AHEAD. ) ;
#78 = AXIS2_PLACEMENT_3D ( 'NONE', #129, #192, #52 ) ;
#79 = DATE_AND_TIME ( #171, #164 ) ;
#80 = APPROVAL_PERSON_ORGANIZATION ( #186, #96, #34 ) ;
#81 = EDGE_LOOP ( 'NONE', ( #28, #198, #3, #112 ) ) ;
#82 = EDGE_CURVE ( 'NONE', #55, #65, #8, .T. ) ;
#83 = CALENDAR_DATE ( 2021, 25, 2 ) ;
#84 = DIRECTION ( 'NONE',  ( -0.000000000000000000, -0.000000000000000000, -1.000000000000000000 ) ) ;
#85 = CYLINDRICAL_SURFACE ( 'NONE', #90, 25.39999999999999858 ) ;
#86 = ORIENTED_EDGE ( 'NONE', *, *, #7, .T. ) ;
#87 = CARTESIAN_POINT ( 'NONE',  ( 25.40000000000072689, 3.110602869834366006E-15, 10.00000000000000888 ) ) ;
#88 = APPROVAL ( #142, 'UNSPECIFIED' ) ;
#89 = AXIS2_PLACEMENT_3D ( 'NONE', #195, #25, #170 ) ;
#90 = AXIS2_PLACEMENT_3D ( 'NONE', #105, #84, #19 ) ;
#91 = APPLICATION_CONTEXT ( 'configuration controlled 3d designs of mechanical parts and assemblies' ) ;
#92 = DIRECTION ( 'NONE',  ( 0.000000000000000000, 0.000000000000000000, 1.000000000000000000 ) ) ;
#93 = DIRECTION ( 'NONE',  ( 0.000000000000000000, -1.000000000000000000, -0.000000000000000000 ) ) ;
#94 = CIRCLE ( 'NONE', #128, 25.40000000000065938 ) ;
#95 = CALENDAR_DATE ( 2021, 25, 2 ) ;
#96 = APPROVAL ( #140, 'UNSPECIFIED' ) ;
#97 = AXIS2_PLACEMENT_3D ( 'NONE', #66, #39, #131 ) ;
#98 = PERSON_AND_ORGANIZATION_ROLE ( 'creator' ) ;
#99 = PERSON ( 'UNSPECIFIED', 'UNSPECIFIED', 'UNSPECIFIED', ('UNSPECIFIED'), ('UNSPECIFIED'), ('UNSPECIFIED') ) ;
#100 = PERSON_AND_ORGANIZATION ( #99, #149 ) ;
#101 = FACE_OUTER_BOUND ( 'NONE', #32, .T. ) ;
#102 = CC_DESIGN_PERSON_AND_ORGANIZATION_ASSIGNMENT ( #76, #98, ( #133 ) ) ;
#103 = DIRECTION ( 'NONE',  ( -0.000000000000000000, -0.000000000000000000, -1.000000000000000000 ) ) ;
#104 = FACE_OUTER_BOUND ( 'NONE', #1, .T. ) ;
#105 = CARTESIAN_POINT ( 'NONE',  ( 0.000000000000000000, 0.000000000000000000, 10.00000000000000000 ) ) ;
#106 = APPLICATION_CONTEXT ( 'configuration controlled 3d designs of mechanical parts and assemblies' ) ;
#107 = AXIS2_PLACEMENT_3D ( 'NONE', #135, #72, #57 ) ;
#108 = DESIGN_CONTEXT ( 'detailed design', #106, 'design' ) ;
#109 = LOCAL_TIME ( 15, 3, 6.000000000000000000, #30 ) ;
#110 = CARTESIAN_POINT ( 'NONE',  ( -25.40000000000059188, 0.000000000000000000, 10.00000000000000888 ) ) ;
#111 = FACE_OUTER_BOUND ( 'NONE', #117, .T. ) ;
#112 = ORIENTED_EDGE ( 'NONE', *, *, #56, .F. ) ;
#113 = SPHERICAL_SURFACE ( 'NONE', #137, 500.0000000000000000 ) ;
#114 = PERSON_AND_ORGANIZATION ( #99, #149 ) ;
#115 = DATE_AND_TIME ( #49, #116 ) ;
#116 = LOCAL_TIME ( 15, 3, 6.000000000000000000, #77 ) ;
#117 = EDGE_LOOP ( 'NONE', ( #157, #144, #141 ) ) ;
#118 = COORDINATED_UNIVERSAL_TIME_OFFSET ( 2, 0, .AHEAD. ) ;
#119 = FACE_OUTER_BOUND ( 'NONE', #81, .T. ) ;
#120 = FACE_OUTER_BOUND ( 'NONE', #21, .T. ) ;
#121 = CIRCLE ( 'NONE', #143, 500.0000000000000000 ) ;
#122 = EDGE_CURVE ( 'NONE', #14, #154, #27, .T. ) ;
#123 = MECHANICAL_CONTEXT ( 'NONE', #91, 'mechanical' ) ;
#124 = ADVANCED_FACE ( 'NONE', ( #101 ), #177, .F. ) ;
#125 =( LENGTH_UNIT ( ) NAMED_UNIT ( * ) SI_UNIT ( .MILLI., .METRE. ) );
#126 = COORDINATED_UNIVERSAL_TIME_OFFSET ( 2, 0, .AHEAD. ) ;
#127 = SHAPE_DEFINITION_REPRESENTATION ( #152, #181 ) ;
#128 = AXIS2_PLACEMENT_3D ( 'NONE', #166, #165, #61 ) ;
#129 = CARTESIAN_POINT ( 'NONE',  ( 0.000000000000000000, 0.000000000000000000, 10.00000000000000000 ) ) ;
#130 = PERSON_AND_ORGANIZATION_ROLE ( 'design_supplier' ) ;
#131 = DIRECTION ( 'NONE',  ( 1.000000000000000000, 0.000000000000000000, 0.000000000000000000 ) ) ;
#132 = CARTESIAN_POINT ( 'NONE',  ( 25.39999999999999858, 3.110602869834276865E-15, 10.00000000000000000 ) ) ;
#133 = PRODUCT_DEFINITION ( 'UNKNOWN', '', #22, #108 ) ;
#134 = APPLICATION_PROTOCOL_DEFINITION ( 'international standard', 'config_control_design', 1994, #91 ) ;
#135 = CARTESIAN_POINT ( 'NONE',  ( 0.000000000000000000, 0.000000000000000000, 0.000000000000000000 ) ) ;
#136 = DIRECTION ( 'NONE',  ( 1.000000000000000000, 1.224646799147353207E-16, 0.000000000000000000 ) ) ;
#137 = AXIS2_PLACEMENT_3D ( 'NONE', #26, #93, #71 ) ;
#138 = APPROVAL_STATUS ( 'not_yet_approved' ) ;
#139 = CC_DESIGN_DATE_AND_TIME_ASSIGNMENT ( #63, #17, ( #156 ) ) ;
#140 = APPROVAL_STATUS ( 'not_yet_approved' ) ;
#141 = ORIENTED_EDGE ( 'NONE', *, *, #82, .T. ) ;
#142 = APPROVAL_STATUS ( 'not_yet_approved' ) ;
#143 = AXIS2_PLACEMENT_3D ( 'NONE', #73, #60, #136 ) ;
#144 = ORIENTED_EDGE ( 'NONE', *, *, #168, .F. ) ;
#145 = VERTEX_POINT ( 'NONE', #110 ) ;
#146 = DIRECTION ( 'NONE',  ( 0.000000000000000000, 1.000000000000000000, -0.000000000000000000 ) ) ;
#147 = CC_DESIGN_PERSON_AND_ORGANIZATION_ASSIGNMENT ( #114, #31, ( #156 ) ) ;
#148 = VECTOR ( 'NONE', #103, 1000.000000000000000 ) ;
#149 = ORGANIZATION ( 'UNSPECIFIED', 'UNSPECIFIED', '' ) ;
#150 = ORIENTED_EDGE ( 'NONE', *, *, #56, .T. ) ;
#151 = DATE_AND_TIME ( #95, #50 ) ;
#152 = PRODUCT_DEFINITION_SHAPE ( 'NONE', 'NONE',  #133 ) ;
#153 = CLOSED_SHELL ( 'NONE', ( #64, #47, #70, #124, #187 ) ) ;
#154 = VERTEX_POINT ( 'NONE', #41 ) ;
#155 = APPROVAL_ROLE ( '' ) ;
#156 = SECURITY_CLASSIFICATION ( '', '', #62 ) ;
#157 = ORIENTED_EDGE ( 'NONE', *, *, #201, .F. ) ;
#158 = PERSON_AND_ORGANIZATION ( #99, #149 ) ;
#159 = SPHERICAL_SURFACE ( 'NONE', #199, 500.0000000000000000 ) ;
#160 = CARTESIAN_POINT ( 'NONE',  ( 6.591949208711866959E-14, 0.000000000000000000, 509.3544232306348363 ) ) ;
#161 = CYLINDRICAL_SURFACE ( 'NONE', #78, 25.39999999999999858 ) ;
#162 = DIRECTION ( 'NONE',  ( -0.000000000000000000, -0.000000000000000000, -1.000000000000000000 ) ) ;
#163 = CC_DESIGN_APPROVAL ( #178, ( #133 ) ) ;
#164 = LOCAL_TIME ( 15, 3, 6.000000000000000000, #126 ) ;
#165 = DIRECTION ( 'NONE',  ( -0.000000000000000000, -0.000000000000000000, -1.000000000000000000 ) ) ;
#166 = CARTESIAN_POINT ( 'NONE',  ( 6.591949208711866959E-14, 0.000000000000000000, 10.00000000000000888 ) ) ;
#167 = PERSON_AND_ORGANIZATION ( #99, #149 ) ;
#168 = EDGE_CURVE ( 'NONE', #55, #145, #94, .T. ) ;
#169 = ORIENTED_EDGE ( 'NONE', *, *, #82, .F. ) ;
#170 = DIRECTION ( 'NONE',  ( 1.000000000000000000, 0.000000000000000000, 0.000000000000000000 ) ) ;
#171 = CALENDAR_DATE ( 2021, 25, 2 ) ;
#172 = APPROVAL_DATE_TIME ( #200, #96 ) ;
#173 =( GEOMETRIC_REPRESENTATION_CONTEXT ( 3 ) GLOBAL_UNCERTAINTY_ASSIGNED_CONTEXT ( ( #58 ) ) GLOBAL_UNIT_ASSIGNED_CONTEXT ( ( #125, #43, #59 ) ) REPRESENTATION_CONTEXT ( 'NONE', 'WORKASPACE' ) );
#174 = ORIENTED_EDGE ( 'NONE', *, *, #40, .F. ) ;
#175 = DATE_TIME_ROLE ( 'creation_date' ) ;
#176 = CARTESIAN_POINT ( 'NONE',  ( 9.653566206580250711E-14, 0.000000000000000000, 9.354423230634845154 ) ) ;
#177 = PLANE ( 'NONE',  #182 ) ;
#178 = APPROVAL ( #138, 'UNSPECIFIED' ) ;
#179 = CIRCLE ( 'NONE', #97, 25.39999999999999858 ) ;
#180 = CARTESIAN_POINT ( 'NONE',  ( -25.39999999999999858, 0.000000000000000000, 10.00000000000000000 ) ) ;
#181 = ADVANCED_BREP_SHAPE_REPRESENTATION ( '010-0505E_N-BK7_PCV_window', ( #42, #107 ), #173 ) ;
#182 = AXIS2_PLACEMENT_3D ( 'NONE', #36, #92, #46 ) ;
#183 = EDGE_CURVE ( 'NONE', #145, #55, #190, .T. ) ;
#184 = ORIENTED_EDGE ( 'NONE', *, *, #122, .F. ) ;
#185 = COORDINATED_UNIVERSAL_TIME_OFFSET ( 2, 0, .AHEAD. ) ;
#186 = PERSON_AND_ORGANIZATION ( #99, #149 ) ;
#187 = ADVANCED_FACE ( 'NONE', ( #111 ), #113, .F. ) ;
#188 = PRODUCT ( '010-0505E_N-BK7_PCV_window', '010-0505E_N-BK7_PCV_window', '', ( #123 ) ) ;
#189 = PERSON_AND_ORGANIZATION ( #99, #149 ) ;
#190 = CIRCLE ( 'NONE', #89, 25.40000000000065938 ) ;
#191 = DIRECTION ( 'NONE',  ( 0.000000000000000000, -1.000000000000000000, -0.000000000000000000 ) ) ;
#192 = DIRECTION ( 'NONE',  ( -0.000000000000000000, -0.000000000000000000, -1.000000000000000000 ) ) ;
#193 = ORIENTED_EDGE ( 'NONE', *, *, #201, .T. ) ;
#194 = CARTESIAN_POINT ( 'NONE',  ( 0.000000000000000000, 0.000000000000000000, 0.000000000000000000 ) ) ;
#195 = CARTESIAN_POINT ( 'NONE',  ( 6.591949208711866959E-14, 0.000000000000000000, 10.00000000000000888 ) ) ;
#196 = APPROVAL_PERSON_ORGANIZATION ( #167, #178, #197 ) ;
#197 = APPROVAL_ROLE ( '' ) ;
#198 = ORIENTED_EDGE ( 'NONE', *, *, #40, .T. ) ;
#199 = AXIS2_PLACEMENT_3D ( 'NONE', #160, #191, #37 ) ;
#200 = DATE_AND_TIME ( #83, #44 ) ;
#201 = EDGE_CURVE ( 'NONE', #145, #65, #121, .T. ) ;
ENDSEC;
END-ISO-10303-21;
