ISO-10303-21;
HEADER;
FILE_DESCRIPTION (( 'STEP AP203' ),
    '1' );
FILE_NAME ('010-0504E_N-BK7_PCV_window.STEP',
    '2021-02-25T13:02:16',
    ( '' ),
    ( '' ),
    'SwSTEP 2.0',
    'SolidWorks 2019',
    '' );
FILE_SCHEMA (( 'CONFIG_CONTROL_DESIGN' ));
ENDSEC;

DATA;
#1 = CARTESIAN_POINT ( 'NONE',  ( 0.000000000000000000, 0.000000000000000000, 0.000000000000000000 ) ) ;
#2 = APPROVAL ( #100, 'UNSPECIFIED' ) ;
#3 = CC_DESIGN_APPROVAL ( #40, ( #92 ) ) ;
#4 = DIRECTION ( 'NONE',  ( 1.000000000000000000, 0.000000000000000000, 0.000000000000000000 ) ) ;
#5 = CC_DESIGN_PERSON_AND_ORGANIZATION_ASSIGNMENT ( #145, #64, ( #185 ) ) ;
#6 = CARTESIAN_POINT ( 'NONE',  ( 25.40000000000016911, 3.110602869834297770E-15, 10.00000000000000888 ) ) ;
#7 = AXIS2_PLACEMENT_3D ( 'NONE', #103, #83, #170 ) ;
#8 = EDGE_CURVE ( 'NONE', #76, #166, #75, .T. ) ;
#9 = ORIENTED_EDGE ( 'NONE', *, *, #8, .F. ) ;
#10 = DIRECTION ( 'NONE',  ( 1.000000000000000000, 0.000000000000000000, 0.000000000000000000 ) ) ;
#11 = SPHERICAL_SURFACE ( 'NONE', #29, 400.0000000000000000 ) ;
#12 = ORIENTED_EDGE ( 'NONE', *, *, #8, .T. ) ;
#13 = CARTESIAN_POINT ( 'NONE',  ( -25.40000000000006253, 0.000000000000000000, 10.00000000000000888 ) ) ;
#14 = AXIS2_PLACEMENT_3D ( 'NONE', #130, #190, #45 ) ;
#15 = CARTESIAN_POINT ( 'NONE',  ( 0.000000000000000000, 0.000000000000000000, 10.00000000000000000 ) ) ;
#16 = DATE_AND_TIME ( #46, #87 ) ;
#17 = ADVANCED_FACE ( 'NONE', ( #192 ), #181, .T. ) ;
#18 = APPLICATION_CONTEXT ( 'configuration controlled 3d designs of mechanical parts and assemblies' ) ;
#19 = ORIENTED_EDGE ( 'NONE', *, *, #27, .F. ) ;
#20 = COORDINATED_UNIVERSAL_TIME_OFFSET ( 2, 0, .AHEAD. ) ;
#21 = APPROVAL_PERSON_ORGANIZATION ( #42, #40, #131 ) ;
#22 = EDGE_CURVE ( 'NONE', #160, #81, #89, .T. ) ;
#23 = DIRECTION ( 'NONE',  ( 0.000000000000000000, 0.000000000000000000, 1.000000000000000000 ) ) ;
#24 = EDGE_CURVE ( 'NONE', #166, #76, #107, .T. ) ;
#25 = LINE ( 'NONE', #157, #141 ) ;
#26 = DIRECTION ( 'NONE',  ( 0.000000000000000000, 0.000000000000000000, 1.000000000000000000 ) ) ;
#27 = EDGE_CURVE ( 'NONE', #160, #188, #152, .T. ) ;
#28 = PERSON ( 'UNSPECIFIED', 'UNSPECIFIED', 'UNSPECIFIED', ('UNSPECIFIED'), ('UNSPECIFIED'), ('UNSPECIFIED') ) ;
#29 = AXIS2_PLACEMENT_3D ( 'NONE', #35, #118, #63 ) ;
#30 = COORDINATED_UNIVERSAL_TIME_OFFSET ( 2, 0, .AHEAD. ) ;
#31 = DIRECTION ( 'NONE',  ( 1.000000000000000000, 1.224646799147353207E-16, 0.000000000000000000 ) ) ;
#32 = DATE_TIME_ROLE ( 'classification_date' ) ;
#33 = PERSON_AND_ORGANIZATION ( #28, #62 ) ;
#34 = COORDINATED_UNIVERSAL_TIME_OFFSET ( 2, 0, .AHEAD. ) ;
#35 = CARTESIAN_POINT ( 'NONE',  ( 5.204170427930421283E-14, 0.000000000000000000, 409.1927354048418124 ) ) ;
#36 = ADVANCED_FACE ( 'NONE', ( #115 ), #135, .F. ) ;
#37 = CARTESIAN_POINT ( 'NONE',  ( 5.204170427930421283E-14, 0.000000000000000000, 409.1927354048418124 ) ) ;
#38 = FACE_OUTER_BOUND ( 'NONE', #110, .T. ) ;
#39 = CARTESIAN_POINT ( 'NONE',  ( 25.39999999999999858, 3.110602869834276865E-15, 0.000000000000000000 ) ) ;
#40 = APPROVAL ( #120, 'UNSPECIFIED' ) ;
#41 = VECTOR ( 'NONE', #195, 1000.000000000000000 ) ;
#42 = PERSON_AND_ORGANIZATION ( #28, #62 ) ;
#44 = EDGE_CURVE ( 'NONE', #188, #81, #136, .T. ) ;
#43 = DATE_AND_TIME ( #98, #180 ) ;
#45 = DIRECTION ( 'NONE',  ( 1.000000000000000000, 0.000000000000000000, 0.000000000000000000 ) ) ;
#46 = CALENDAR_DATE ( 2021, 25, 2 ) ;
#47 = LOCAL_TIME ( 15, 2, 16.00000000000000000, #58 ) ;
#48 = EDGE_LOOP ( 'NONE', ( #19, #94, #175 ) ) ;
#49 = CYLINDRICAL_SURFACE ( 'NONE', #7, 25.39999999999999858 ) ;
#50 = PERSON_AND_ORGANIZATION ( #28, #62 ) ;
#51 = APPROVAL ( #147, 'UNSPECIFIED' ) ;
#52 = LOCAL_TIME ( 15, 2, 16.00000000000000000, #61 ) ;
#53 = DIRECTION ( 'NONE',  ( 1.000000000000000000, 0.000000000000000000, -0.000000000000000000 ) ) ;
#54 = EDGE_LOOP ( 'NONE', ( #140, #9 ) ) ;
#55 = MECHANICAL_CONTEXT ( 'NONE', #156, 'mechanical' ) ;
#56 = CALENDAR_DATE ( 2021, 25, 2 ) ;
#57 = DIRECTION ( 'NONE',  ( 0.000000000000000000, 0.000000000000000000, 1.000000000000000000 ) ) ;
#58 = COORDINATED_UNIVERSAL_TIME_OFFSET ( 2, 0, .AHEAD. ) ;
#59 = DIRECTION ( 'NONE',  ( -1.000000000000000000, 0.000000000000000000, 0.000000000000000000 ) ) ;
#60 = AXIS2_PLACEMENT_3D ( 'NONE', #168, #144, #200 ) ;
#61 = COORDINATED_UNIVERSAL_TIME_OFFSET ( 2, 0, .AHEAD. ) ;
#62 = ORGANIZATION ( 'UNSPECIFIED', 'UNSPECIFIED', '' ) ;
#63 = DIRECTION ( 'NONE',  ( 1.000000000000000000, 0.000000000000000000, 0.000000000000000000 ) ) ;
#64 = PERSON_AND_ORGANIZATION_ROLE ( 'design_supplier' ) ;
#65 = AXIS2_PLACEMENT_3D ( 'NONE', #155, #138, #53 ) ;
#66 = CARTESIAN_POINT ( 'NONE',  ( 7.653464026225126771E-14, 0.000000000000000000, 9.192735404841778646 ) ) ;
#67 = LOCAL_TIME ( 15, 2, 16.00000000000000000, #20 ) ;
#68 = DIRECTION ( 'NONE',  ( -0.000000000000000000, -0.000000000000000000, -1.000000000000000000 ) ) ;
#69 = PRODUCT_DEFINITION_SHAPE ( 'NONE', 'NONE',  #117 ) ;
#70 = ORIENTED_EDGE ( 'NONE', *, *, #24, .T. ) ;
#71 = CC_DESIGN_PERSON_AND_ORGANIZATION_ASSIGNMENT ( #169, #78, ( #117 ) ) ;
#72 = APPLICATION_PROTOCOL_DEFINITION ( 'international standard', 'config_control_design', 1994, #156 ) ;
#73 = ORIENTED_EDGE ( 'NONE', *, *, #22, .F. ) ;
#74 = CC_DESIGN_PERSON_AND_ORGANIZATION_ASSIGNMENT ( #112, #184, ( #185 ) ) ;
#75 = CIRCLE ( 'NONE', #158, 25.39999999999999858 ) ;
#76 = VERTEX_POINT ( 'NONE', #39 ) ;
#77 = DIRECTION ( 'NONE',  ( 1.224646799147353207E-16, -1.000000000000000000, 0.000000000000000000 ) ) ;
#78 = PERSON_AND_ORGANIZATION_ROLE ( 'creator' ) ;
#79 = FACE_OUTER_BOUND ( 'NONE', #48, .T. ) ;
#80 = EDGE_LOOP ( 'NONE', ( #119, #97, #199, #70 ) ) ;
#81 = VERTEX_POINT ( 'NONE', #66 ) ;
#82 = CALENDAR_DATE ( 2021, 25, 2 ) ;
#83 = DIRECTION ( 'NONE',  ( -0.000000000000000000, -0.000000000000000000, -1.000000000000000000 ) ) ;
#84 = APPLICATION_PROTOCOL_DEFINITION ( 'international standard', 'config_control_design', 1994, #18 ) ;
#85 = CARTESIAN_POINT ( 'NONE',  ( 25.39999999999999858, 3.110602869834276865E-15, 10.00000000000000000 ) ) ;
#86 = AXIS2_PLACEMENT_3D ( 'NONE', #148, #194, #23 ) ;
#87 = LOCAL_TIME ( 15, 2, 16.00000000000000000, #30 ) ;
#88 = FACE_OUTER_BOUND ( 'NONE', #54, .T. ) ;
#89 = CIRCLE ( 'NONE', #198, 400.0000000000000000 ) ;
#90 =( NAMED_UNIT ( * ) SI_UNIT ( $, .STERADIAN. ) SOLID_ANGLE_UNIT ( ) );
#91 = ORIENTED_EDGE ( 'NONE', *, *, #154, .F. ) ;
#92 = SECURITY_CLASSIFICATION ( '', '', #201 ) ;
#93 = CARTESIAN_POINT ( 'NONE',  ( -25.39999999999999858, 0.000000000000000000, 0.000000000000000000 ) ) ;
#94 = ORIENTED_EDGE ( 'NONE', *, *, #22, .T. ) ;
#95 = PRODUCT_RELATED_PRODUCT_CATEGORY ( 'detail', '', ( #197 ) ) ;
#96 = APPROVAL_DATE_TIME ( #191, #51 ) ;
#97 = ORIENTED_EDGE ( 'NONE', *, *, #154, .T. ) ;
#98 = CALENDAR_DATE ( 2021, 25, 2 ) ;
#99 = ORIENTED_EDGE ( 'NONE', *, *, #139, .T. ) ;
#100 = APPROVAL_STATUS ( 'not_yet_approved' ) ;
#101 = DIRECTION ( 'NONE',  ( 1.000000000000000000, 0.000000000000000000, 0.000000000000000000 ) ) ;
#102 = APPROVAL_DATE_TIME ( #16, #40 ) ;
#103 = CARTESIAN_POINT ( 'NONE',  ( 0.000000000000000000, 0.000000000000000000, 10.00000000000000000 ) ) ;
#104 = DATE_TIME_ROLE ( 'creation_date' ) ;
#105 =( LENGTH_UNIT ( ) NAMED_UNIT ( * ) SI_UNIT ( .MILLI., .METRE. ) );
#106 = DIRECTION ( 'NONE',  ( -0.000000000000000000, -0.000000000000000000, -1.000000000000000000 ) ) ;
#107 = CIRCLE ( 'NONE', #60, 25.39999999999999858 ) ;
#108 = LINE ( 'NONE', #85, #41 ) ;
#109 = CC_DESIGN_PERSON_AND_ORGANIZATION_ASSIGNMENT ( #50, #189, ( #92 ) ) ;
#110 = EDGE_LOOP ( 'NONE', ( #133, #99, #12, #163 ) ) ;
#111 = CC_DESIGN_PERSON_AND_ORGANIZATION_ASSIGNMENT ( #150, #151, ( #197 ) ) ;
#112 = PERSON_AND_ORGANIZATION ( #28, #62 ) ;
#113 = DIRECTION ( 'NONE',  ( -0.000000000000000000, -0.000000000000000000, -1.000000000000000000 ) ) ;
#114 = ADVANCED_BREP_SHAPE_REPRESENTATION ( '010-0504E_N-BK7_PCV_window', ( #159, #128 ), #153 ) ;
#115 = FACE_OUTER_BOUND ( 'NONE', #146, .T. ) ;
#116 = APPROVAL_PERSON_ORGANIZATION ( #33, #2, #149 ) ;
#117 = PRODUCT_DEFINITION ( 'UNKNOWN', '', #185, #124 ) ;
#118 = DIRECTION ( 'NONE',  ( 0.000000000000000000, -1.000000000000000000, -0.000000000000000000 ) ) ;
#119 = ORIENTED_EDGE ( 'NONE', *, *, #139, .F. ) ;
#120 = APPROVAL_STATUS ( 'not_yet_approved' ) ;
#121 = DIRECTION ( 'NONE',  ( 0.000000000000000000, -1.000000000000000000, -0.000000000000000000 ) ) ;
#122 = AXIS2_PLACEMENT_3D ( 'NONE', #37, #121, #4 ) ;
#123 = CC_DESIGN_APPROVAL ( #2, ( #117 ) ) ;
#124 = DESIGN_CONTEXT ( 'detailed design', #18, 'design' ) ;
#125 = CARTESIAN_POINT ( 'NONE',  ( 0.000000000000000000, 0.000000000000000000, 0.000000000000000000 ) ) ;
#126 = CARTESIAN_POINT ( 'NONE',  ( 5.204170427930421283E-14, 0.000000000000000000, 10.00000000000000888 ) ) ;
#127 = AXIS2_PLACEMENT_3D ( 'NONE', #126, #106, #172 ) ;
#128 = AXIS2_PLACEMENT_3D ( 'NONE', #125, #26, #10 ) ;
#129 = APPROVAL_ROLE ( '' ) ;
#130 = CARTESIAN_POINT ( 'NONE',  ( 5.204170427930421283E-14, 0.000000000000000000, 10.00000000000000888 ) ) ;
#132 = EDGE_CURVE ( 'NONE', #160, #166, #25, .T. ) ;
#131 = APPROVAL_ROLE ( '' ) ;
#133 = ORIENTED_EDGE ( 'NONE', *, *, #27, .T. ) ;
#134 = PERSON_AND_ORGANIZATION ( #28, #62 ) ;
#135 = SPHERICAL_SURFACE ( 'NONE', #122, 400.0000000000000000 ) ;
#136 = CIRCLE ( 'NONE', #86, 400.0000000000000000 ) ;
#137 = CC_DESIGN_DATE_AND_TIME_ASSIGNMENT ( #183, #32, ( #92 ) ) ;
#138 = DIRECTION ( 'NONE',  ( 0.000000000000000000, 0.000000000000000000, 1.000000000000000000 ) ) ;
#139 = EDGE_CURVE ( 'NONE', #188, #76, #108, .T. ) ;
#140 = ORIENTED_EDGE ( 'NONE', *, *, #24, .F. ) ;
#141 = VECTOR ( 'NONE', #68, 1000.000000000000000 ) ;
#142 = ORIENTED_EDGE ( 'NONE', *, *, #44, .T. ) ;
#143 = ADVANCED_FACE ( 'NONE', ( #88 ), #196, .F. ) ;
#144 = DIRECTION ( 'NONE',  ( 0.000000000000000000, 0.000000000000000000, 1.000000000000000000 ) ) ;
#145 = PERSON_AND_ORGANIZATION ( #28, #62 ) ;
#146 = EDGE_LOOP ( 'NONE', ( #73, #91, #142 ) ) ;
#147 = APPROVAL_STATUS ( 'not_yet_approved' ) ;
#148 = CARTESIAN_POINT ( 'NONE',  ( 5.204170427930421283E-14, 0.000000000000000000, 409.1927354048418124 ) ) ;
#149 = APPROVAL_ROLE ( '' ) ;
#150 = PERSON_AND_ORGANIZATION ( #28, #62 ) ;
#151 = PERSON_AND_ORGANIZATION_ROLE ( 'design_owner' ) ;
#152 = CIRCLE ( 'NONE', #14, 25.40000000000011227 ) ;
#153 =( GEOMETRIC_REPRESENTATION_CONTEXT ( 3 ) GLOBAL_UNCERTAINTY_ASSIGNED_CONTEXT ( ( #164 ) ) GLOBAL_UNIT_ASSIGNED_CONTEXT ( ( #105, #174, #90 ) ) REPRESENTATION_CONTEXT ( 'NONE', 'WORKASPACE' ) );
#154 = EDGE_CURVE ( 'NONE', #188, #160, #171, .T. ) ;
#155 = CARTESIAN_POINT ( 'NONE',  ( 0.000000000000000000, 0.000000000000000000, 0.000000000000000000 ) ) ;
#156 = APPLICATION_CONTEXT ( 'configuration controlled 3d designs of mechanical parts and assemblies' ) ;
#157 = CARTESIAN_POINT ( 'NONE',  ( -25.39999999999999858, 0.000000000000000000, 10.00000000000000000 ) ) ;
#158 = AXIS2_PLACEMENT_3D ( 'NONE', #1, #57, #101 ) ;
#159 = MANIFOLD_SOLID_BREP ( 'Cut-Revolve1', #179 ) ;
#160 = VERTEX_POINT ( 'NONE', #13 ) ;
#161 = AXIS2_PLACEMENT_3D ( 'NONE', #15, #113, #59 ) ;
#162 = ADVANCED_FACE ( 'NONE', ( #79 ), #11, .F. ) ;
#163 = ORIENTED_EDGE ( 'NONE', *, *, #132, .F. ) ;
#164 = UNCERTAINTY_MEASURE_WITH_UNIT (LENGTH_MEASURE( 1.000000000000000082E-05 ), #105, 'distance_accuracy_value', 'NONE');
#165 = SHAPE_DEFINITION_REPRESENTATION ( #69, #114 ) ;
#166 = VERTEX_POINT ( 'NONE', #93 ) ;
#167 = CALENDAR_DATE ( 2021, 25, 2 ) ;
#168 = CARTESIAN_POINT ( 'NONE',  ( 0.000000000000000000, 0.000000000000000000, 0.000000000000000000 ) ) ;
#169 = PERSON_AND_ORGANIZATION ( #28, #62 ) ;
#170 = DIRECTION ( 'NONE',  ( -1.000000000000000000, 0.000000000000000000, 0.000000000000000000 ) ) ;
#171 = CIRCLE ( 'NONE', #127, 25.40000000000011227 ) ;
#172 = DIRECTION ( 'NONE',  ( 1.000000000000000000, 0.000000000000000000, 0.000000000000000000 ) ) ;
#173 = CC_DESIGN_SECURITY_CLASSIFICATION ( #92, ( #185 ) ) ;
#174 =( NAMED_UNIT ( * ) PLANE_ANGLE_UNIT ( ) SI_UNIT ( $, .RADIAN. ) );
#175 = ORIENTED_EDGE ( 'NONE', *, *, #44, .F. ) ;
#176 = CC_DESIGN_DATE_AND_TIME_ASSIGNMENT ( #43, #104, ( #117 ) ) ;
#177 = CC_DESIGN_APPROVAL ( #51, ( #185 ) ) ;
#178 = CARTESIAN_POINT ( 'NONE',  ( 5.204170427930421283E-14, 0.000000000000000000, 409.1927354048418124 ) ) ;
#179 = CLOSED_SHELL ( 'NONE', ( #162, #186, #17, #143, #36 ) ) ;
#180 = LOCAL_TIME ( 15, 2, 16.00000000000000000, #34 ) ;
#181 = CYLINDRICAL_SURFACE ( 'NONE', #161, 25.39999999999999858 ) ;
#182 = DATE_AND_TIME ( #56, #52 ) ;
#183 = DATE_AND_TIME ( #167, #47 ) ;
#184 = PERSON_AND_ORGANIZATION_ROLE ( 'creator' ) ;
#185 = PRODUCT_DEFINITION_FORMATION_WITH_SPECIFIED_SOURCE ( 'ANY', '', #197, .NOT_KNOWN. ) ;
#186 = ADVANCED_FACE ( 'NONE', ( #38 ), #49, .T. ) ;
#187 = APPROVAL_PERSON_ORGANIZATION ( #134, #51, #129 ) ;
#188 = VERTEX_POINT ( 'NONE', #6 ) ;
#189 = PERSON_AND_ORGANIZATION_ROLE ( 'classification_officer' ) ;
#190 = DIRECTION ( 'NONE',  ( -0.000000000000000000, -0.000000000000000000, -1.000000000000000000 ) ) ;
#191 = DATE_AND_TIME ( #82, #67 ) ;
#192 = FACE_OUTER_BOUND ( 'NONE', #80, .T. ) ;
#193 = APPROVAL_DATE_TIME ( #182, #2 ) ;
#194 = DIRECTION ( 'NONE',  ( 0.000000000000000000, 1.000000000000000000, -0.000000000000000000 ) ) ;
#195 = DIRECTION ( 'NONE',  ( -0.000000000000000000, -0.000000000000000000, -1.000000000000000000 ) ) ;
#196 = PLANE ( 'NONE',  #65 ) ;
#197 = PRODUCT ( '010-0504E_N-BK7_PCV_window', '010-0504E_N-BK7_PCV_window', '', ( #55 ) ) ;
#198 = AXIS2_PLACEMENT_3D ( 'NONE', #178, #77, #31 ) ;
#199 = ORIENTED_EDGE ( 'NONE', *, *, #132, .T. ) ;
#200 = DIRECTION ( 'NONE',  ( 1.000000000000000000, 0.000000000000000000, 0.000000000000000000 ) ) ;
#201 = SECURITY_CLASSIFICATION_LEVEL ( 'unclassified' ) ;
ENDSEC;
END-ISO-10303-21;
