ISO-10303-21;
HEADER;
FILE_DESCRIPTION (( 'STEP AP203' ),
    '1' );
FILE_NAME ('010-0503E_N-BK7_PCV_window.STEP',
    '2021-02-25T12:58:33',
    ( '' ),
    ( '' ),
    'SwSTEP 2.0',
    'SolidWorks 2019',
    '' );
FILE_SCHEMA (( 'CONFIG_CONTROL_DESIGN' ));
ENDSEC;

DATA;
#1 = DIRECTION ( 'NONE',  ( 1.000000000000000000, 0.000000000000000000, 0.000000000000000000 ) ) ;
#2 = ORIENTED_EDGE ( 'NONE', *, *, #200, .F. ) ;
#3 = PERSON_AND_ORGANIZATION_ROLE ( 'creator' ) ;
#4 = AXIS2_PLACEMENT_3D ( 'NONE', #10, #76, #187 ) ;
#5 = APPROVAL_ROLE ( '' ) ;
#6 = VECTOR ( 'NONE', #55, 1000.000000000000000 ) ;
#7 = CARTESIAN_POINT ( 'NONE',  ( 0.000000000000000000, 0.000000000000000000, 0.000000000000000000 ) ) ;
#8 = CARTESIAN_POINT ( 'NONE',  ( 25.40000000000027924, 3.110602869834311575E-15, 10.00000000000000888 ) ) ;
#9 = ORIENTED_EDGE ( 'NONE', *, *, #111, .F. ) ;
#10 = CARTESIAN_POINT ( 'NONE',  ( 0.000000000000000000, 0.000000000000000000, 0.000000000000000000 ) ) ;
#11 = ADVANCED_BREP_SHAPE_REPRESENTATION ( '010-0503E_N-BK7_PCV_window', ( #22, #117 ), #102 ) ;
#12 = DATE_TIME_ROLE ( 'classification_date' ) ;
#13 = SECURITY_CLASSIFICATION_LEVEL ( 'unclassified' ) ;
#14 = APPROVAL_PERSON_ORGANIZATION ( #27, #162, #103 ) ;
#15 = ORGANIZATION ( 'UNSPECIFIED', 'UNSPECIFIED', '' ) ;
#16 = COORDINATED_UNIVERSAL_TIME_OFFSET ( 2, 0, .AHEAD. ) ;
#17 = CC_DESIGN_PERSON_AND_ORGANIZATION_ASSIGNMENT ( #106, #47, ( #61 ) ) ;
#18 = APPROVAL_DATE_TIME ( #158, #36 ) ;
#19 = LOCAL_TIME ( 14, 58, 33.00000000000000000, #16 ) ;
#20 = CC_DESIGN_PERSON_AND_ORGANIZATION_ASSIGNMENT ( #33, #122, ( #145 ) ) ;
#21 = CARTESIAN_POINT ( 'NONE',  ( 3.469446951953614189E-14, 0.000000000000000000, 258.7063328506131938 ) ) ;
#22 = MANIFOLD_SOLID_BREP ( 'Cut-Revolve1', #138 ) ;
#23 = CIRCLE ( 'NONE', #71, 250.0000000000000000 ) ;
#24 = CARTESIAN_POINT ( 'NONE',  ( 0.000000000000000000, 0.000000000000000000, 10.00000000000000000 ) ) ;
#25 = DIRECTION ( 'NONE',  ( 1.224646799147353207E-16, -1.000000000000000000, 0.000000000000000000 ) ) ;
#26 = CYLINDRICAL_SURFACE ( 'NONE', #194, 25.39999999999999858 ) ;
#27 = PERSON_AND_ORGANIZATION ( #105, #15 ) ;
#28 = EDGE_CURVE ( 'NONE', #87, #30, #166, .T. ) ;
#29 = ORIENTED_EDGE ( 'NONE', *, *, #124, .F. ) ;
#30 = VERTEX_POINT ( 'NONE', #60 ) ;
#31 = PERSON_AND_ORGANIZATION ( #105, #15 ) ;
#32 = APPROVAL_ROLE ( '' ) ;
#33 = PERSON_AND_ORGANIZATION ( #105, #15 ) ;
#34 = CC_DESIGN_APPROVAL ( #162, ( #61 ) ) ;
#35 = CC_DESIGN_APPROVAL ( #195, ( #176 ) ) ;
#36 = APPROVAL ( #93, 'UNSPECIFIED' ) ;
#37 = AXIS2_PLACEMENT_3D ( 'NONE', #7, #74, #196 ) ;
#38 = CARTESIAN_POINT ( 'NONE',  ( 3.469446951953614189E-14, 0.000000000000000000, 10.00000000000000888 ) ) ;
#39 = FACE_OUTER_BOUND ( 'NONE', #199, .T. ) ;
#40 = APPLICATION_CONTEXT ( 'configuration controlled 3d designs of mechanical parts and assemblies' ) ;
#41 = CARTESIAN_POINT ( 'NONE',  ( 3.469446951953614189E-14, 0.000000000000000000, 258.7063328506131938 ) ) ;
#42 = ORIENTED_EDGE ( 'NONE', *, *, #192, .T. ) ;
#43 = CC_DESIGN_APPROVAL ( #36, ( #82 ) ) ;
#44 = EDGE_CURVE ( 'NONE', #57, #30, #70, .T. ) ;
#45 = SHAPE_DEFINITION_REPRESENTATION ( #130, #11 ) ;
#46 = ORIENTED_EDGE ( 'NONE', *, *, #49, .F. ) ;
#47 = PERSON_AND_ORGANIZATION_ROLE ( 'classification_officer' ) ;
#48 = ORIENTED_EDGE ( 'NONE', *, *, #112, .F. ) ;
#49 = EDGE_CURVE ( 'NONE', #57, #108, #161, .T. ) ;
#50 = AXIS2_PLACEMENT_3D ( 'NONE', #198, #83, #72 ) ;
#51 = MECHANICAL_CONTEXT ( 'NONE', #155, 'mechanical' ) ;
#52 = DATE_AND_TIME ( #120, #143 ) ;
#53 = CALENDAR_DATE ( 2021, 25, 2 ) ;
#54 = DESIGN_CONTEXT ( 'detailed design', #40, 'design' ) ;
#55 = DIRECTION ( 'NONE',  ( -0.000000000000000000, -0.000000000000000000, -1.000000000000000000 ) ) ;
#56 = DIRECTION ( 'NONE',  ( -0.000000000000000000, -0.000000000000000000, -1.000000000000000000 ) ) ;
#57 = VERTEX_POINT ( 'NONE', #8 ) ;
#58 = CARTESIAN_POINT ( 'NONE',  ( 3.469446951953614189E-14, 0.000000000000000000, 258.7063328506131938 ) ) ;
#59 =( LENGTH_UNIT ( ) NAMED_UNIT ( * ) SI_UNIT ( .MILLI., .METRE. ) );
#60 = CARTESIAN_POINT ( 'NONE',  ( 25.39999999999999858, 3.110602869834276865E-15, 0.000000000000000000 ) ) ;
#61 = SECURITY_CLASSIFICATION ( '', '', #13 ) ;
#62 = CARTESIAN_POINT ( 'NONE',  ( 0.000000000000000000, 0.000000000000000000, 0.000000000000000000 ) ) ;
#63 = COORDINATED_UNIVERSAL_TIME_OFFSET ( 2, 0, .AHEAD. ) ;
#64 = ORIENTED_EDGE ( 'NONE', *, *, #200, .T. ) ;
#65 = CALENDAR_DATE ( 2021, 25, 2 ) ;
#66 = CIRCLE ( 'NONE', #184, 25.40000000000024727 ) ;
#67 = APPROVAL_STATUS ( 'not_yet_approved' ) ;
#68 = AXIS2_PLACEMENT_3D ( 'NONE', #41, #167, #197 ) ;
#69 = CC_DESIGN_PERSON_AND_ORGANIZATION_ASSIGNMENT ( #174, #3, ( #176 ) ) ;
#70 = LINE ( 'NONE', #163, #6 ) ;
#71 = AXIS2_PLACEMENT_3D ( 'NONE', #58, #25, #115 ) ;
#72 = DIRECTION ( 'NONE',  ( 1.000000000000000000, 0.000000000000000000, 0.000000000000000000 ) ) ;
#73 = DIRECTION ( 'NONE',  ( 1.000000000000000000, 0.000000000000000000, 0.000000000000000000 ) ) ;
#74 = DIRECTION ( 'NONE',  ( 0.000000000000000000, 0.000000000000000000, 1.000000000000000000 ) ) ;
#75 = CARTESIAN_POINT ( 'NONE',  ( -25.39999999999999858, 0.000000000000000000, 10.00000000000000000 ) ) ;
#76 = DIRECTION ( 'NONE',  ( 0.000000000000000000, 0.000000000000000000, 1.000000000000000000 ) ) ;
#77 = DIRECTION ( 'NONE',  ( 0.000000000000000000, 0.000000000000000000, 1.000000000000000000 ) ) ;
#78 = CALENDAR_DATE ( 2021, 25, 2 ) ;
#79 = AXIS2_PLACEMENT_3D ( 'NONE', #21, #89, #126 ) ;
#80 = COORDINATED_UNIVERSAL_TIME_OFFSET ( 2, 0, .AHEAD. ) ;
#81 = PERSON_AND_ORGANIZATION ( #105, #15 ) ;
#82 = PRODUCT_DEFINITION_FORMATION_WITH_SPECIFIED_SOURCE ( 'ANY', '', #145, .NOT_KNOWN. ) ;
#83 = DIRECTION ( 'NONE',  ( 0.000000000000000000, -1.000000000000000000, -0.000000000000000000 ) ) ;
#84 = DIRECTION ( 'NONE',  ( -0.000000000000000000, -0.000000000000000000, -1.000000000000000000 ) ) ;
#85 = PRODUCT_RELATED_PRODUCT_CATEGORY ( 'detail', '', ( #145 ) ) ;
#86 = ORIENTED_EDGE ( 'NONE', *, *, #44, .F. ) ;
#87 = VERTEX_POINT ( 'NONE', #98 ) ;
#88 = APPLICATION_PROTOCOL_DEFINITION ( 'international standard', 'config_control_design', 1994, #155 ) ;
#89 = DIRECTION ( 'NONE',  ( 0.000000000000000000, 1.000000000000000000, -0.000000000000000000 ) ) ;
#90 = DIRECTION ( 'NONE',  ( -0.000000000000000000, -0.000000000000000000, -1.000000000000000000 ) ) ;
#91 = APPROVAL_STATUS ( 'not_yet_approved' ) ;
#92 = ORIENTED_EDGE ( 'NONE', *, *, #111, .T. ) ;
#93 = APPROVAL_STATUS ( 'not_yet_approved' ) ;
#94 = ADVANCED_FACE ( 'NONE', ( #146 ), #201, .F. ) ;
#95 = LOCAL_TIME ( 14, 58, 33.00000000000000000, #80 ) ;
#96 = ORIENTED_EDGE ( 'NONE', *, *, #28, .T. ) ;
#97 = CYLINDRICAL_SURFACE ( 'NONE', #189, 25.39999999999999858 ) ;
#98 = CARTESIAN_POINT ( 'NONE',  ( -25.39999999999999858, 0.000000000000000000, 0.000000000000000000 ) ) ;
#99 = CARTESIAN_POINT ( 'NONE',  ( -25.40000000000021529, 0.000000000000000000, 10.00000000000000888 ) ) ;
#100 = ADVANCED_FACE ( 'NONE', ( #116 ), #129, .F. ) ;
#101 = DATE_AND_TIME ( #135, #165 ) ;
#102 =( GEOMETRIC_REPRESENTATION_CONTEXT ( 3 ) GLOBAL_UNCERTAINTY_ASSIGNED_CONTEXT ( ( #125 ) ) GLOBAL_UNIT_ASSIGNED_CONTEXT ( ( #59, #118, #148 ) ) REPRESENTATION_CONTEXT ( 'NONE', 'WORKASPACE' ) );
#103 = APPROVAL_ROLE ( '' ) ;
#104 = ORIENTED_EDGE ( 'NONE', *, *, #112, .T. ) ;
#105 = PERSON ( 'UNSPECIFIED', 'UNSPECIFIED', 'UNSPECIFIED', ('UNSPECIFIED'), ('UNSPECIFIED'), ('UNSPECIFIED') ) ;
#106 = PERSON_AND_ORGANIZATION ( #105, #15 ) ;
#107 = ORIENTED_EDGE ( 'NONE', *, *, #49, .T. ) ;
#108 = VERTEX_POINT ( 'NONE', #132 ) ;
#109 = DATE_TIME_ROLE ( 'creation_date' ) ;
#110 = PERSON_AND_ORGANIZATION ( #105, #15 ) ;
#111 = EDGE_CURVE ( 'NONE', #154, #108, #23, .T. ) ;
#112 = EDGE_CURVE ( 'NONE', #154, #57, #159, .T. ) ;
#113 = DIRECTION ( 'NONE',  ( -0.000000000000000000, -0.000000000000000000, -1.000000000000000000 ) ) ;
#114 = DIRECTION ( 'NONE',  ( -0.000000000000000000, -0.000000000000000000, -1.000000000000000000 ) ) ;
#115 = DIRECTION ( 'NONE',  ( 1.000000000000000000, 1.224646799147353207E-16, 0.000000000000000000 ) ) ;
#116 = FACE_OUTER_BOUND ( 'NONE', #170, .T. ) ;
#117 = AXIS2_PLACEMENT_3D ( 'NONE', #169, #151, #188 ) ;
#118 =( NAMED_UNIT ( * ) PLANE_ANGLE_UNIT ( ) SI_UNIT ( $, .RADIAN. ) );
#119 = AXIS2_PLACEMENT_3D ( 'NONE', #62, #77, #1 ) ;
#120 = CALENDAR_DATE ( 2021, 25, 2 ) ;
#121 = PERSON_AND_ORGANIZATION ( #105, #15 ) ;
#122 = PERSON_AND_ORGANIZATION_ROLE ( 'design_owner' ) ;
#123 = LOCAL_TIME ( 14, 58, 33.00000000000000000, #134 ) ;
#124 = EDGE_CURVE ( 'NONE', #57, #154, #66, .T. ) ;
#125 = UNCERTAINTY_MEASURE_WITH_UNIT (LENGTH_MEASURE( 1.000000000000000082E-05 ), #59, 'distance_accuracy_value', 'NONE');
#126 = DIRECTION ( 'NONE',  ( 0.000000000000000000, 0.000000000000000000, 1.000000000000000000 ) ) ;
#127 = CC_DESIGN_DATE_AND_TIME_ASSIGNMENT ( #153, #12, ( #61 ) ) ;
#128 = APPROVAL_PERSON_ORGANIZATION ( #31, #36, #5 ) ;
#129 = SPHERICAL_SURFACE ( 'NONE', #68, 250.0000000000000000 ) ;
#130 = PRODUCT_DEFINITION_SHAPE ( 'NONE', 'NONE',  #176 ) ;
#131 = DIRECTION ( 'NONE',  ( -1.000000000000000000, 0.000000000000000000, 0.000000000000000000 ) ) ;
#132 = CARTESIAN_POINT ( 'NONE',  ( 5.000255450887806065E-14, 0.000000000000000000, 8.706332850613174301 ) ) ;
#133 = FACE_OUTER_BOUND ( 'NONE', #171, .T. ) ;
#134 = COORDINATED_UNIVERSAL_TIME_OFFSET ( 2, 0, .AHEAD. ) ;
#135 = CALENDAR_DATE ( 2021, 25, 2 ) ;
#136 = VECTOR ( 'NONE', #90, 1000.000000000000000 ) ;
#137 = ORIENTED_EDGE ( 'NONE', *, *, #124, .T. ) ;
#138 = CLOSED_SHELL ( 'NONE', ( #100, #173, #156, #178, #94 ) ) ;
#139 = APPROVAL_DATE_TIME ( #191, #195 ) ;
#140 = CC_DESIGN_PERSON_AND_ORGANIZATION_ASSIGNMENT ( #121, #175, ( #82 ) ) ;
#141 = ORIENTED_EDGE ( 'NONE', *, *, #44, .T. ) ;
#142 = CC_DESIGN_SECURITY_CLASSIFICATION ( #61, ( #82 ) ) ;
#143 = LOCAL_TIME ( 14, 58, 33.00000000000000000, #160 ) ;
#144 = EDGE_LOOP ( 'NONE', ( #9, #29, #107 ) ) ;
#145 = PRODUCT ( '010-0503E_N-BK7_PCV_window', '010-0503E_N-BK7_PCV_window', '', ( #51 ) ) ;
#146 = FACE_OUTER_BOUND ( 'NONE', #144, .T. ) ;
#147 = PLANE ( 'NONE',  #4 ) ;
#148 =( NAMED_UNIT ( * ) SI_UNIT ( $, .STERADIAN. ) SOLID_ANGLE_UNIT ( ) );
#149 = APPROVAL_PERSON_ORGANIZATION ( #110, #195, #32 ) ;
#150 = EDGE_LOOP ( 'NONE', ( #104, #141, #42, #2 ) ) ;
#151 = DIRECTION ( 'NONE',  ( 0.000000000000000000, 0.000000000000000000, 1.000000000000000000 ) ) ;
#152 = CC_DESIGN_PERSON_AND_ORGANIZATION_ASSIGNMENT ( #81, #157, ( #82 ) ) ;
#153 = DATE_AND_TIME ( #78, #123 ) ;
#154 = VERTEX_POINT ( 'NONE', #99 ) ;
#155 = APPLICATION_CONTEXT ( 'configuration controlled 3d designs of mechanical parts and assemblies' ) ;
#156 = ADVANCED_FACE ( 'NONE', ( #39 ), #97, .T. ) ;
#157 = PERSON_AND_ORGANIZATION_ROLE ( 'creator' ) ;
#158 = DATE_AND_TIME ( #53, #19 ) ;
#159 = CIRCLE ( 'NONE', #177, 25.40000000000024727 ) ;
#160 = COORDINATED_UNIVERSAL_TIME_OFFSET ( 2, 0, .AHEAD. ) ;
#161 = CIRCLE ( 'NONE', #79, 250.0000000000000000 ) ;
#162 = APPROVAL ( #91, 'UNSPECIFIED' ) ;
#163 = CARTESIAN_POINT ( 'NONE',  ( 25.39999999999999858, 3.110602869834276865E-15, 10.00000000000000000 ) ) ;
#164 = CARTESIAN_POINT ( 'NONE',  ( 0.000000000000000000, 0.000000000000000000, 10.00000000000000000 ) ) ;
#165 = LOCAL_TIME ( 14, 58, 33.00000000000000000, #63 ) ;
#166 = CIRCLE ( 'NONE', #37, 25.39999999999999858 ) ;
#167 = DIRECTION ( 'NONE',  ( 0.000000000000000000, -1.000000000000000000, -0.000000000000000000 ) ) ;
#168 = DIRECTION ( 'NONE',  ( -1.000000000000000000, 0.000000000000000000, 0.000000000000000000 ) ) ;
#169 = CARTESIAN_POINT ( 'NONE',  ( 0.000000000000000000, 0.000000000000000000, 0.000000000000000000 ) ) ;
#170 = EDGE_LOOP ( 'NONE', ( #48, #92, #46 ) ) ;
#171 = EDGE_LOOP ( 'NONE', ( #180, #172 ) ) ;
#172 = ORIENTED_EDGE ( 'NONE', *, *, #192, .F. ) ;
#173 = ADVANCED_FACE ( 'NONE', ( #183 ), #26, .T. ) ;
#174 = PERSON_AND_ORGANIZATION ( #105, #15 ) ;
#175 = PERSON_AND_ORGANIZATION_ROLE ( 'design_supplier' ) ;
#176 = PRODUCT_DEFINITION ( 'UNKNOWN', '', #82, #54 ) ;
#177 = AXIS2_PLACEMENT_3D ( 'NONE', #185, #56, #73 ) ;
#178 = ADVANCED_FACE ( 'NONE', ( #133 ), #147, .F. ) ;
#179 = CIRCLE ( 'NONE', #119, 25.39999999999999858 ) ;
#180 = ORIENTED_EDGE ( 'NONE', *, *, #28, .F. ) ;
#181 = DIRECTION ( 'NONE',  ( 1.000000000000000000, 0.000000000000000000, 0.000000000000000000 ) ) ;
#182 = CC_DESIGN_DATE_AND_TIME_ASSIGNMENT ( #52, #109, ( #176 ) ) ;
#183 = FACE_OUTER_BOUND ( 'NONE', #150, .T. ) ;
#184 = AXIS2_PLACEMENT_3D ( 'NONE', #38, #113, #181 ) ;
#185 = CARTESIAN_POINT ( 'NONE',  ( 3.469446951953614189E-14, 0.000000000000000000, 10.00000000000000888 ) ) ;
#186 = LINE ( 'NONE', #75, #136 ) ;
#187 = DIRECTION ( 'NONE',  ( 1.000000000000000000, 0.000000000000000000, -0.000000000000000000 ) ) ;
#188 = DIRECTION ( 'NONE',  ( 1.000000000000000000, 0.000000000000000000, 0.000000000000000000 ) ) ;
#189 = AXIS2_PLACEMENT_3D ( 'NONE', #164, #114, #168 ) ;
#190 = APPROVAL_DATE_TIME ( #101, #162 ) ;
#191 = DATE_AND_TIME ( #65, #95 ) ;
#192 = EDGE_CURVE ( 'NONE', #30, #87, #179, .T. ) ;
#193 = APPLICATION_PROTOCOL_DEFINITION ( 'international standard', 'config_control_design', 1994, #40 ) ;
#194 = AXIS2_PLACEMENT_3D ( 'NONE', #24, #84, #131 ) ;
#195 = APPROVAL ( #67, 'UNSPECIFIED' ) ;
#196 = DIRECTION ( 'NONE',  ( 1.000000000000000000, 0.000000000000000000, 0.000000000000000000 ) ) ;
#197 = DIRECTION ( 'NONE',  ( 1.000000000000000000, 0.000000000000000000, 0.000000000000000000 ) ) ;
#198 = CARTESIAN_POINT ( 'NONE',  ( 3.469446951953614189E-14, 0.000000000000000000, 258.7063328506131938 ) ) ;
#199 = EDGE_LOOP ( 'NONE', ( #86, #137, #64, #96 ) ) ;
#200 = EDGE_CURVE ( 'NONE', #154, #87, #186, .T. ) ;
#201 = SPHERICAL_SURFACE ( 'NONE', #50, 250.0000000000000000 ) ;
ENDSEC;
END-ISO-10303-21;
