ISO-10303-21;
HEADER;
FILE_DESCRIPTION (( 'STEP AP203' ),
    '1' );
FILE_NAME ('010-0502E_N-BK7_PCV_window.STEP',
    '2021-02-25T12:57:44',
    ( '' ),
    ( '' ),
    'SwSTEP 2.0',
    'SolidWorks 2019',
    '' );
FILE_SCHEMA (( 'CONFIG_CONTROL_DESIGN' ));
ENDSEC;

DATA;
#1 = ORIENTED_EDGE ( 'NONE', *, *, #44, .T. ) ;
#2 = CC_DESIGN_APPROVAL ( #92, ( #119 ) ) ;
#3 = COORDINATED_UNIVERSAL_TIME_OFFSET ( 2, 0, .AHEAD. ) ;
#4 = CARTESIAN_POINT ( 'NONE',  ( 25.39999999999999858, 3.110602869834276865E-15, 10.00000000000000000 ) ) ;
#5 = CC_DESIGN_PERSON_AND_ORGANIZATION_ASSIGNMENT ( #16, #109, ( #156 ) ) ;
#6 = LINE ( 'NONE', #111, #188 ) ;
#7 = PRODUCT_DEFINITION_FORMATION_WITH_SPECIFIED_SOURCE ( 'ANY', '', #125, .NOT_KNOWN. ) ;
#8 = AXIS2_PLACEMENT_3D ( 'NONE', #82, #66, #161 ) ;
#9 = DIRECTION ( 'NONE',  ( 1.000000000000000000, 0.000000000000000000, -0.000000000000000000 ) ) ;
#10 = CARTESIAN_POINT ( 'NONE',  ( -25.39999999999999858, 0.000000000000000000, 0.000000000000000000 ) ) ;
#11 = AXIS2_PLACEMENT_3D ( 'NONE', #114, #176, #56 ) ;
#12 = CC_DESIGN_APPROVAL ( #102, ( #7 ) ) ;
#13 = EDGE_CURVE ( 'NONE', #137, #124, #146, .T. ) ;
#14 = DIRECTION ( 'NONE',  ( 1.000000000000000000, 0.000000000000000000, 0.000000000000000000 ) ) ;
#15 = VERTEX_POINT ( 'NONE', #21 ) ;
#16 = PERSON_AND_ORGANIZATION ( #134, #28 ) ;
#17 = DATE_AND_TIME ( #155, #192 ) ;
#18 = COORDINATED_UNIVERSAL_TIME_OFFSET ( 2, 0, .AHEAD. ) ;
#19 = VERTEX_POINT ( 'NONE', #81 ) ;
#20 = DIRECTION ( 'NONE',  ( -0.000000000000000000, -0.000000000000000000, -1.000000000000000000 ) ) ;
#21 = CARTESIAN_POINT ( 'NONE',  ( -25.39999999999967528, 0.000000000000000000, 10.00000000000000888 ) ) ;
#22 = CARTESIAN_POINT ( 'NONE',  ( 0.000000000000000000, 0.000000000000000000, 0.000000000000000000 ) ) ;
#23 = CLOSED_SHELL ( 'NONE', ( #195, #101, #148, #178, #71 ) ) ;
#24 = CARTESIAN_POINT ( 'NONE',  ( 2.775557561562891351E-14, 0.000000000000000000, 208.3805434008083637 ) ) ;
#25 = CC_DESIGN_PERSON_AND_ORGANIZATION_ASSIGNMENT ( #80, #63, ( #7 ) ) ;
#26 = CC_DESIGN_APPROVAL ( #128, ( #156 ) ) ;
#27 = EDGE_CURVE ( 'NONE', #15, #76, #104, .T. ) ;
#28 = ORGANIZATION ( 'UNSPECIFIED', 'UNSPECIFIED', '' ) ;
#29 =( LENGTH_UNIT ( ) NAMED_UNIT ( * ) SI_UNIT ( .MILLI., .METRE. ) );
#30 = APPROVAL_ROLE ( '' ) ;
#31 = COORDINATED_UNIVERSAL_TIME_OFFSET ( 2, 0, .AHEAD. ) ;
#32 = EDGE_LOOP ( 'NONE', ( #75, #198 ) ) ;
#33 = AXIS2_PLACEMENT_3D ( 'NONE', #58, #112, #193 ) ;
#34 = APPROVAL_ROLE ( '' ) ;
#35 = APPROVAL_DATE_TIME ( #171, #92 ) ;
#36 = DIRECTION ( 'NONE',  ( 0.000000000000000000, 0.000000000000000000, 1.000000000000000000 ) ) ;
#37 = AXIS2_PLACEMENT_3D ( 'NONE', #22, #147, #9 ) ;
#38 = PRODUCT_RELATED_PRODUCT_CATEGORY ( 'detail', '', ( #125 ) ) ;
#39 = APPLICATION_PROTOCOL_DEFINITION ( 'international standard', 'config_control_design', 1994, #84 ) ;
#40 = DIRECTION ( 'NONE',  ( -1.000000000000000000, 0.000000000000000000, 0.000000000000000000 ) ) ;
#41 = DIRECTION ( 'NONE',  ( -0.000000000000000000, -0.000000000000000000, -1.000000000000000000 ) ) ;
#42 = CARTESIAN_POINT ( 'NONE',  ( 4.000204360710244095E-14, 0.000000000000000000, 8.380543400808376120 ) ) ;
#43 = EDGE_CURVE ( 'NONE', #15, #137, #6, .T. ) ;
#44 = EDGE_CURVE ( 'NONE', #19, #124, #191, .T. ) ;
#45 = AXIS2_PLACEMENT_3D ( 'NONE', #135, #196, #86 ) ;
#46 = AXIS2_PLACEMENT_3D ( 'NONE', #99, #41, #40 ) ;
#47 = PERSON_AND_ORGANIZATION_ROLE ( 'classification_officer' ) ;
#48 = LOCAL_TIME ( 14, 57, 44.00000000000000000, #184 ) ;
#49 = ORIENTED_EDGE ( 'NONE', *, *, #43, .F. ) ;
#50 = CIRCLE ( 'NONE', #163, 199.9999999999999432 ) ;
#51 = CALENDAR_DATE ( 2021, 25, 2 ) ;
#52 = EDGE_CURVE ( 'NONE', #19, #76, #50, .T. ) ;
#53 = PERSON_AND_ORGANIZATION_ROLE ( 'design_owner' ) ;
#54 = ORIENTED_EDGE ( 'NONE', *, *, #52, .T. ) ;
#55 = MANIFOLD_SOLID_BREP ( 'Cut-Revolve1', #23 ) ;
#56 = DIRECTION ( 'NONE',  ( 1.000000000000000000, 0.000000000000000000, 0.000000000000000000 ) ) ;
#57 = VECTOR ( 'NONE', #20, 1000.000000000000000 ) ;
#58 = CARTESIAN_POINT ( 'NONE',  ( 0.000000000000000000, 0.000000000000000000, 10.00000000000000000 ) ) ;
#59 = DIRECTION ( 'NONE',  ( -0.000000000000000000, -0.000000000000000000, -1.000000000000000000 ) ) ;
#60 = DIRECTION ( 'NONE',  ( 1.000000000000000000, 0.000000000000000000, 0.000000000000000000 ) ) ;
#61 = AXIS2_PLACEMENT_3D ( 'NONE', #182, #36, #172 ) ;
#62 = DATE_AND_TIME ( #91, #100 ) ;
#63 = PERSON_AND_ORGANIZATION_ROLE ( 'design_supplier' ) ;
#64 = ORIENTED_EDGE ( 'NONE', *, *, #27, .F. ) ;
#65 = APPROVAL_STATUS ( 'not_yet_approved' ) ;
#66 = DIRECTION ( 'NONE',  ( 0.000000000000000000, 0.000000000000000000, 1.000000000000000000 ) ) ;
#67 = DIRECTION ( 'NONE',  ( 0.000000000000000000, 0.000000000000000000, 1.000000000000000000 ) ) ;
#68 = CIRCLE ( 'NONE', #8, 25.39999999999999858 ) ;
#69 = FACE_OUTER_BOUND ( 'NONE', #159, .T. ) ;
#70 = SPHERICAL_SURFACE ( 'NONE', #138, 199.9999999999999716 ) ;
#71 = ADVANCED_FACE ( 'NONE', ( #69 ), #70, .F. ) ;
#72 = EDGE_CURVE ( 'NONE', #124, #137, #68, .T. ) ;
#73 = AXIS2_PLACEMENT_3D ( 'NONE', #24, #145, #173 ) ;
#74 = APPLICATION_PROTOCOL_DEFINITION ( 'international standard', 'config_control_design', 1994, #117 ) ;
#75 = ORIENTED_EDGE ( 'NONE', *, *, #13, .F. ) ;
#76 = VERTEX_POINT ( 'NONE', #42 ) ;
#77 = APPROVAL_PERSON_ORGANIZATION ( #165, #128, #34 ) ;
#78 = PERSON_AND_ORGANIZATION ( #134, #28 ) ;
#79 = EDGE_LOOP ( 'NONE', ( #186, #185, #169 ) ) ;
#80 = PERSON_AND_ORGANIZATION ( #134, #28 ) ;
#81 = CARTESIAN_POINT ( 'NONE',  ( 25.39999999999973213, 3.110602869834260299E-15, 10.00000000000000888 ) ) ;
#82 = CARTESIAN_POINT ( 'NONE',  ( 0.000000000000000000, 0.000000000000000000, 0.000000000000000000 ) ) ;
#83 = CARTESIAN_POINT ( 'NONE',  ( 2.775557561562891351E-14, 0.000000000000000000, 208.3805434008083637 ) ) ;
#84 = APPLICATION_CONTEXT ( 'configuration controlled 3d designs of mechanical parts and assemblies' ) ;
#85 = SPHERICAL_SURFACE ( 'NONE', #45, 199.9999999999999716 ) ;
#86 = DIRECTION ( 'NONE',  ( 1.000000000000000000, 0.000000000000000000, 0.000000000000000000 ) ) ;
#87 = DIRECTION ( 'NONE',  ( 0.000000000000000000, 0.000000000000000000, 1.000000000000000000 ) ) ;
#88 = CIRCLE ( 'NONE', #11, 25.39999999999970370 ) ;
#89 = DATE_TIME_ROLE ( 'creation_date' ) ;
#90 = ORIENTED_EDGE ( 'NONE', *, *, #106, .T. ) ;
#91 = CALENDAR_DATE ( 2021, 25, 2 ) ;
#92 = APPROVAL ( #65, 'UNSPECIFIED' ) ;
#93 = SHAPE_DEFINITION_REPRESENTATION ( #158, #194 ) ;
#94 = LOCAL_TIME ( 14, 57, 44.00000000000000000, #3 ) ;
#95 = ORIENTED_EDGE ( 'NONE', *, *, #72, .T. ) ;
#96 =( NAMED_UNIT ( * ) SI_UNIT ( $, .STERADIAN. ) SOLID_ANGLE_UNIT ( ) );
#97 = FACE_OUTER_BOUND ( 'NONE', #120, .T. ) ;
#98 = PLANE ( 'NONE',  #37 ) ;
#99 = CARTESIAN_POINT ( 'NONE',  ( 0.000000000000000000, 0.000000000000000000, 10.00000000000000000 ) ) ;
#100 = LOCAL_TIME ( 14, 57, 44.00000000000000000, #18 ) ;
#101 = ADVANCED_FACE ( 'NONE', ( #160 ), #129, .T. ) ;
#102 = APPROVAL ( #197, 'UNSPECIFIED' ) ;
#103 = PERSON_AND_ORGANIZATION ( #134, #28 ) ;
#104 = CIRCLE ( 'NONE', #73, 199.9999999999999716 ) ;
#105 = DATE_AND_TIME ( #51, #94 ) ;
#106 = EDGE_CURVE ( 'NONE', #19, #15, #130, .T. ) ;
#107 = CALENDAR_DATE ( 2021, 25, 2 ) ;
#108 = ORIENTED_EDGE ( 'NONE', *, *, #106, .F. ) ;
#109 = PERSON_AND_ORGANIZATION_ROLE ( 'creator' ) ;
#110 =( GEOMETRIC_REPRESENTATION_CONTEXT ( 3 ) GLOBAL_UNCERTAINTY_ASSIGNED_CONTEXT ( ( #180 ) ) GLOBAL_UNIT_ASSIGNED_CONTEXT ( ( #29, #136, #96 ) ) REPRESENTATION_CONTEXT ( 'NONE', 'WORKASPACE' ) );
#111 = CARTESIAN_POINT ( 'NONE',  ( -25.39999999999999858, 0.000000000000000000, 10.00000000000000000 ) ) ;
#112 = DIRECTION ( 'NONE',  ( -0.000000000000000000, -0.000000000000000000, -1.000000000000000000 ) ) ;
#113 = CARTESIAN_POINT ( 'NONE',  ( 2.775557561562891351E-14, 0.000000000000000000, 208.3805434008083637 ) ) ;
#114 = CARTESIAN_POINT ( 'NONE',  ( 2.775557561562891351E-14, 0.000000000000000000, 10.00000000000000888 ) ) ;
#115 = CC_DESIGN_PERSON_AND_ORGANIZATION_ASSIGNMENT ( #78, #53, ( #125 ) ) ;
#116 = LOCAL_TIME ( 14, 57, 44.00000000000000000, #170 ) ;
#117 = APPLICATION_CONTEXT ( 'configuration controlled 3d designs of mechanical parts and assemblies' ) ;
#118 = FACE_OUTER_BOUND ( 'NONE', #79, .T. ) ;
#119 = SECURITY_CLASSIFICATION ( '', '', #201 ) ;
#120 = EDGE_LOOP ( 'NONE', ( #127, #90, #154, #143 ) ) ;
#121 = PERSON_AND_ORGANIZATION ( #134, #28 ) ;
#122 = AXIS2_PLACEMENT_3D ( 'NONE', #179, #87, #14 ) ;
#123 = APPROVAL_STATUS ( 'not_yet_approved' ) ;
#124 = VERTEX_POINT ( 'NONE', #190 ) ;
#125 = PRODUCT ( '010-0502E_N-BK7_PCV_window', '010-0502E_N-BK7_PCV_window', '', ( #153 ) ) ;
#126 = APPROVAL_ROLE ( '' ) ;
#127 = ORIENTED_EDGE ( 'NONE', *, *, #44, .F. ) ;
#128 = APPROVAL ( #123, 'UNSPECIFIED' ) ;
#129 = CYLINDRICAL_SURFACE ( 'NONE', #46, 25.39999999999999858 ) ;
#130 = CIRCLE ( 'NONE', #152, 25.39999999999970370 ) ;
#131 = DIRECTION ( 'NONE',  ( 0.000000000000000000, -1.000000000000000000, -0.000000000000000000 ) ) ;
#132 = CC_DESIGN_PERSON_AND_ORGANIZATION_ASSIGNMENT ( #141, #199, ( #7 ) ) ;
#133 = CYLINDRICAL_SURFACE ( 'NONE', #33, 25.39999999999999858 ) ;
#134 = PERSON ( 'UNSPECIFIED', 'UNSPECIFIED', 'UNSPECIFIED', ('UNSPECIFIED'), ('UNSPECIFIED'), ('UNSPECIFIED') ) ;
#135 = CARTESIAN_POINT ( 'NONE',  ( 2.775557561562891351E-14, 0.000000000000000000, 208.3805434008083637 ) ) ;
#136 =( NAMED_UNIT ( * ) PLANE_ANGLE_UNIT ( ) SI_UNIT ( $, .RADIAN. ) );
#137 = VERTEX_POINT ( 'NONE', #10 ) ;
#138 = AXIS2_PLACEMENT_3D ( 'NONE', #83, #131, #175 ) ;
#139 = APPROVAL_DATE_TIME ( #142, #102 ) ;
#140 = CALENDAR_DATE ( 2021, 25, 2 ) ;
#141 = PERSON_AND_ORGANIZATION ( #134, #28 ) ;
#142 = DATE_AND_TIME ( #140, #116 ) ;
#143 = ORIENTED_EDGE ( 'NONE', *, *, #13, .T. ) ;
#144 = DIRECTION ( 'NONE',  ( 0.000000000000000000, 1.000000000000000000, -0.000000000000000000 ) ) ;
#145 = DIRECTION ( 'NONE',  ( 1.224646799147353207E-16, -1.000000000000000000, 0.000000000000000000 ) ) ;
#146 = CIRCLE ( 'NONE', #61, 25.39999999999999858 ) ;
#147 = DIRECTION ( 'NONE',  ( 0.000000000000000000, 0.000000000000000000, 1.000000000000000000 ) ) ;
#148 = ADVANCED_FACE ( 'NONE', ( #97 ), #133, .T. ) ;
#149 = DIRECTION ( 'NONE',  ( -0.000000000000000000, -0.000000000000000000, -1.000000000000000000 ) ) ;
#150 = EDGE_LOOP ( 'NONE', ( #166, #1, #95, #49 ) ) ;
#151 = APPROVAL_PERSON_ORGANIZATION ( #103, #92, #126 ) ;
#152 = AXIS2_PLACEMENT_3D ( 'NONE', #187, #149, #60 ) ;
#153 = MECHANICAL_CONTEXT ( 'NONE', #84, 'mechanical' ) ;
#154 = ORIENTED_EDGE ( 'NONE', *, *, #43, .T. ) ;
#155 = CALENDAR_DATE ( 2021, 25, 2 ) ;
#156 = PRODUCT_DEFINITION ( 'UNKNOWN', '', #7, #167 ) ;
#157 = DATE_TIME_ROLE ( 'classification_date' ) ;
#158 = PRODUCT_DEFINITION_SHAPE ( 'NONE', 'NONE',  #156 ) ;
#159 = EDGE_LOOP ( 'NONE', ( #64, #108, #54 ) ) ;
#160 = FACE_OUTER_BOUND ( 'NONE', #150, .T. ) ;
#161 = DIRECTION ( 'NONE',  ( 1.000000000000000000, 0.000000000000000000, 0.000000000000000000 ) ) ;
#162 = APPROVAL_PERSON_ORGANIZATION ( #181, #102, #30 ) ;
#163 = AXIS2_PLACEMENT_3D ( 'NONE', #113, #144, #67 ) ;
#164 = CC_DESIGN_DATE_AND_TIME_ASSIGNMENT ( #105, #157, ( #119 ) ) ;
#165 = PERSON_AND_ORGANIZATION ( #134, #28 ) ;
#166 = ORIENTED_EDGE ( 'NONE', *, *, #177, .T. ) ;
#167 = DESIGN_CONTEXT ( 'detailed design', #117, 'design' ) ;
#168 = APPROVAL_DATE_TIME ( #17, #128 ) ;
#169 = ORIENTED_EDGE ( 'NONE', *, *, #52, .F. ) ;
#170 = COORDINATED_UNIVERSAL_TIME_OFFSET ( 2, 0, .AHEAD. ) ;
#171 = DATE_AND_TIME ( #107, #48 ) ;
#172 = DIRECTION ( 'NONE',  ( 1.000000000000000000, 0.000000000000000000, 0.000000000000000000 ) ) ;
#173 = DIRECTION ( 'NONE',  ( 1.000000000000000000, 1.224646799147353207E-16, 0.000000000000000000 ) ) ;
#174 = FACE_OUTER_BOUND ( 'NONE', #32, .T. ) ;
#175 = DIRECTION ( 'NONE',  ( 1.000000000000000000, 0.000000000000000000, 0.000000000000000000 ) ) ;
#176 = DIRECTION ( 'NONE',  ( -0.000000000000000000, -0.000000000000000000, -1.000000000000000000 ) ) ;
#177 = EDGE_CURVE ( 'NONE', #15, #19, #88, .T. ) ;
#178 = ADVANCED_FACE ( 'NONE', ( #174 ), #98, .F. ) ;
#179 = CARTESIAN_POINT ( 'NONE',  ( 0.000000000000000000, 0.000000000000000000, 0.000000000000000000 ) ) ;
#180 = UNCERTAINTY_MEASURE_WITH_UNIT (LENGTH_MEASURE( 1.000000000000000082E-05 ), #29, 'distance_accuracy_value', 'NONE');
#181 = PERSON_AND_ORGANIZATION ( #134, #28 ) ;
#182 = CARTESIAN_POINT ( 'NONE',  ( 0.000000000000000000, 0.000000000000000000, 0.000000000000000000 ) ) ;
#183 = CC_DESIGN_SECURITY_CLASSIFICATION ( #119, ( #7 ) ) ;
#184 = COORDINATED_UNIVERSAL_TIME_OFFSET ( 2, 0, .AHEAD. ) ;
#185 = ORIENTED_EDGE ( 'NONE', *, *, #27, .T. ) ;
#186 = ORIENTED_EDGE ( 'NONE', *, *, #177, .F. ) ;
#187 = CARTESIAN_POINT ( 'NONE',  ( 2.775557561562891351E-14, 0.000000000000000000, 10.00000000000000888 ) ) ;
#188 = VECTOR ( 'NONE', #59, 1000.000000000000000 ) ;
#189 = CC_DESIGN_PERSON_AND_ORGANIZATION_ASSIGNMENT ( #121, #47, ( #119 ) ) ;
#190 = CARTESIAN_POINT ( 'NONE',  ( 25.39999999999999858, 3.110602869834276865E-15, 0.000000000000000000 ) ) ;
#191 = LINE ( 'NONE', #4, #57 ) ;
#192 = LOCAL_TIME ( 14, 57, 44.00000000000000000, #31 ) ;
#193 = DIRECTION ( 'NONE',  ( -1.000000000000000000, 0.000000000000000000, 0.000000000000000000 ) ) ;
#194 = ADVANCED_BREP_SHAPE_REPRESENTATION ( '010-0502E_N-BK7_PCV_window', ( #55, #122 ), #110 ) ;
#195 = ADVANCED_FACE ( 'NONE', ( #118 ), #85, .F. ) ;
#196 = DIRECTION ( 'NONE',  ( 0.000000000000000000, -1.000000000000000000, -0.000000000000000000 ) ) ;
#197 = APPROVAL_STATUS ( 'not_yet_approved' ) ;
#198 = ORIENTED_EDGE ( 'NONE', *, *, #72, .F. ) ;
#199 = PERSON_AND_ORGANIZATION_ROLE ( 'creator' ) ;
#200 = CC_DESIGN_DATE_AND_TIME_ASSIGNMENT ( #62, #89, ( #156 ) ) ;
#201 = SECURITY_CLASSIFICATION_LEVEL ( 'unclassified' ) ;
ENDSEC;
END-ISO-10303-21;
