ISO-10303-21;
HEADER;
FILE_DESCRIPTION (( 'STEP AP203' ),
    '1' );
FILE_NAME ('010-0501E_N-BK7_PCV_window.STEP',
    '2021-02-25T12:56:41',
    ( '' ),
    ( '' ),
    'SwSTEP 2.0',
    'SolidWorks 2019',
    '' );
FILE_SCHEMA (( 'CONFIG_CONTROL_DESIGN' ));
ENDSEC;

DATA;
#1 = PRODUCT_DEFINITION_SHAPE ( 'NONE', 'NONE',  #52 ) ;
#2 = FACE_OUTER_BOUND ( 'NONE', #51, .T. ) ;
#3 = EDGE_CURVE ( 'NONE', #107, #35, #30, .T. ) ;
#4 = ORIENTED_EDGE ( 'NONE', *, *, #80, .T. ) ;
#5 = ORIENTED_EDGE ( 'NONE', *, *, #163, .F. ) ;
#6 = CC_DESIGN_APPROVAL ( #108, ( #16 ) ) ;
#7 = ADVANCED_FACE ( 'NONE', ( #15 ), #62, .T. ) ;
#8 = DIRECTION ( 'NONE',  ( 1.000000000000000000, 0.000000000000000000, 0.000000000000000000 ) ) ;
#9 = APPROVAL_ROLE ( '' ) ;
#10 = DIRECTION ( 'NONE',  ( 0.000000000000000000, 0.000000000000000000, 1.000000000000000000 ) ) ;
#11 = MECHANICAL_CONTEXT ( 'NONE', #114, 'mechanical' ) ;
#12 = CALENDAR_DATE ( 2021, 25, 2 ) ;
#13 = APPROVAL_STATUS ( 'not_yet_approved' ) ;
#14 = ORIENTED_EDGE ( 'NONE', *, *, #125, .F. ) ;
#15 = FACE_OUTER_BOUND ( 'NONE', #78, .T. ) ;
#16 = PRODUCT_DEFINITION_FORMATION_WITH_SPECIFIED_SOURCE ( 'ANY', '', #172, .NOT_KNOWN. ) ;
#17 = AXIS2_PLACEMENT_3D ( 'NONE', #76, #34, #124 ) ;
#18 = EDGE_LOOP ( 'NONE', ( #91, #4, #159 ) ) ;
#19 = SECURITY_CLASSIFICATION ( '', '', #27 ) ;
#20 = PLANE ( 'NONE',  #111 ) ;
#21 = UNCERTAINTY_MEASURE_WITH_UNIT (LENGTH_MEASURE( 1.000000000000000082E-05 ), #26, 'distance_accuracy_value', 'NONE');
#22 = CARTESIAN_POINT ( 'NONE',  ( 25.39999999999999858, 3.110602869834276865E-15, 10.00000000000000000 ) ) ;
#23 = CALENDAR_DATE ( 2021, 25, 2 ) ;
#24 = DIRECTION ( 'NONE',  ( 1.000000000000000000, 0.000000000000000000, 0.000000000000000000 ) ) ;
#25 = APPROVAL_ROLE ( '' ) ;
#26 =( LENGTH_UNIT ( ) NAMED_UNIT ( * ) SI_UNIT ( .MILLI., .METRE. ) );
#27 = SECURITY_CLASSIFICATION_LEVEL ( 'unclassified' ) ;
#28 = PERSON_AND_ORGANIZATION ( #123, #93 ) ;
#29 = ADVANCED_FACE ( 'NONE', ( #45 ), #175, .F. ) ;
#30 = CIRCLE ( 'NONE', #179, 100.0000000000000000 ) ;
#31 = CALENDAR_DATE ( 2021, 25, 2 ) ;
#32 = ORIENTED_EDGE ( 'NONE', *, *, #80, .F. ) ;
#33 = CC_DESIGN_PERSON_AND_ORGANIZATION_ASSIGNMENT ( #104, #169, ( #52 ) ) ;
#34 = DIRECTION ( 'NONE',  ( 0.000000000000000000, -1.000000000000000000, -0.000000000000000000 ) ) ;
#35 = VERTEX_POINT ( 'NONE', #142 ) ;
#36 = AXIS2_PLACEMENT_3D ( 'NONE', #152, #154, #69 ) ;
#37 = ADVANCED_FACE ( 'NONE', ( #2 ), #20, .F. ) ;
#38 = DIRECTION ( 'NONE',  ( -0.000000000000000000, -0.000000000000000000, -1.000000000000000000 ) ) ;
#39 = CARTESIAN_POINT ( 'NONE',  ( 0.000000000000000000, 0.000000000000000000, 0.000000000000000000 ) ) ;
#40 = DIRECTION ( 'NONE',  ( 0.000000000000000000, 0.000000000000000000, 1.000000000000000000 ) ) ;
#41 = AXIS2_PLACEMENT_3D ( 'NONE', #85, #184, #97 ) ;
#42 =( NAMED_UNIT ( * ) SI_UNIT ( $, .STERADIAN. ) SOLID_ANGLE_UNIT ( ) );
#43 = DATE_AND_TIME ( #186, #84 ) ;
#44 = CIRCLE ( 'NONE', #174, 100.0000000000000000 ) ;
#45 = FACE_OUTER_BOUND ( 'NONE', #180, .T. ) ;
#46 = VERTEX_POINT ( 'NONE', #86 ) ;
#47 = ORIENTED_EDGE ( 'NONE', *, *, #144, .T. ) ;
#48 = AXIS2_PLACEMENT_3D ( 'NONE', #200, #185, #24 ) ;
#49 = CC_DESIGN_SECURITY_CLASSIFICATION ( #19, ( #16 ) ) ;
#50 = EDGE_CURVE ( 'NONE', #112, #145, #130, .T. ) ;
#51 = EDGE_LOOP ( 'NONE', ( #193, #14 ) ) ;
#52 = PRODUCT_DEFINITION ( 'UNKNOWN', '', #16, #149 ) ;
#53 = DIRECTION ( 'NONE',  ( -0.000000000000000000, -0.000000000000000000, -1.000000000000000000 ) ) ;
#54 = APPLICATION_PROTOCOL_DEFINITION ( 'international standard', 'config_control_design', 1994, #114 ) ;
#55 = CARTESIAN_POINT ( 'NONE',  ( 0.000000000000000000, 0.000000000000000000, 0.000000000000000000 ) ) ;
#56 = CALENDAR_DATE ( 2021, 25, 2 ) ;
#57 = APPROVAL ( #187, 'UNSPECIFIED' ) ;
#58 = LINE ( 'NONE', #22, #102 ) ;
#59 = COORDINATED_UNIVERSAL_TIME_OFFSET ( 2, 0, .AHEAD. ) ;
#60 = APPROVAL_PERSON_ORGANIZATION ( #101, #108, #9 ) ;
#61 = DATE_TIME_ROLE ( 'classification_date' ) ;
#62 = CYLINDRICAL_SURFACE ( 'NONE', #77, 25.39999999999999858 ) ;
#63 = DIRECTION ( 'NONE',  ( 0.000000000000000000, 1.000000000000000000, -0.000000000000000000 ) ) ;
#64 = AXIS2_PLACEMENT_3D ( 'NONE', #151, #40, #153 ) ;
#65 = CC_DESIGN_APPROVAL ( #57, ( #19 ) ) ;
#66 = MANIFOLD_SOLID_BREP ( 'Cut-Revolve1', #94 ) ;
#67 = CARTESIAN_POINT ( 'NONE',  ( -25.39999999999999858, 0.000000000000000000, 10.00000000000000000 ) ) ;
#68 = PERSON_AND_ORGANIZATION ( #123, #93 ) ;
#69 = DIRECTION ( 'NONE',  ( -1.000000000000000000, 0.000000000000000000, 0.000000000000000000 ) ) ;
#70 = APPLICATION_PROTOCOL_DEFINITION ( 'international standard', 'config_control_design', 1994, #140 ) ;
#71 =( NAMED_UNIT ( * ) PLANE_ANGLE_UNIT ( ) SI_UNIT ( $, .RADIAN. ) );
#72 = PERSON_AND_ORGANIZATION ( #123, #93 ) ;
#73 = DATE_AND_TIME ( #31, #147 ) ;
#74 = LOCAL_TIME ( 14, 56, 41.00000000000000000, #134 ) ;
#75 = ORIENTED_EDGE ( 'NONE', *, *, #50, .T. ) ;
#76 = CARTESIAN_POINT ( 'NONE',  ( 1.387778780781445676E-14, 0.000000000000000000, 106.7204218353083860 ) ) ;
#77 = AXIS2_PLACEMENT_3D ( 'NONE', #106, #189, #90 ) ;
#78 = EDGE_LOOP ( 'NONE', ( #5, #191, #190, #75 ) ) ;
#79 = LOCAL_TIME ( 14, 56, 41.00000000000000000, #132 ) ;
#80 = EDGE_CURVE ( 'NONE', #46, #35, #44, .T. ) ;
#81 = CARTESIAN_POINT ( 'NONE',  ( 0.000000000000000000, 0.000000000000000000, 0.000000000000000000 ) ) ;
#82 = CARTESIAN_POINT ( 'NONE',  ( 1.387778780781445676E-14, 0.000000000000000000, 106.7204218353083860 ) ) ;
#83 = PERSON_AND_ORGANIZATION_ROLE ( 'design_owner' ) ;
#84 = LOCAL_TIME ( 14, 56, 41.00000000000000000, #59 ) ;
#85 = CARTESIAN_POINT ( 'NONE',  ( 1.387778780781445676E-14, 0.000000000000000000, 106.7204218353083860 ) ) ;
#86 = CARTESIAN_POINT ( 'NONE',  ( -25.40000000000003411, 0.000000000000000000, 9.999999999999994671 ) ) ;
#87 = PERSON_AND_ORGANIZATION ( #123, #93 ) ;
#88 = DATE_AND_TIME ( #12, #161 ) ;
#89 = ORIENTED_EDGE ( 'NONE', *, *, #137, .F. ) ;
#90 = DIRECTION ( 'NONE',  ( -1.000000000000000000, 0.000000000000000000, 0.000000000000000000 ) ) ;
#91 = ORIENTED_EDGE ( 'NONE', *, *, #144, .F. ) ;
#92 = CC_DESIGN_PERSON_AND_ORGANIZATION_ASSIGNMENT ( #138, #171, ( #16 ) ) ;
#93 = ORGANIZATION ( 'UNSPECIFIED', 'UNSPECIFIED', '' ) ;
#94 = CLOSED_SHELL ( 'NONE', ( #170, #181, #7, #37, #29 ) ) ;
#95 = CARTESIAN_POINT ( 'NONE',  ( 1.387778780781445676E-14, 0.000000000000000000, 106.7204218353083860 ) ) ;
#96 = CC_DESIGN_DATE_AND_TIME_ASSIGNMENT ( #88, #61, ( #19 ) ) ;
#97 = DIRECTION ( 'NONE',  ( 1.000000000000000000, 0.000000000000000000, 0.000000000000000000 ) ) ;
#98 = DIRECTION ( 'NONE',  ( 0.000000000000000000, 0.000000000000000000, 1.000000000000000000 ) ) ;
#99 = DATE_AND_TIME ( #56, #79 ) ;
#100 = DIRECTION ( 'NONE',  ( 1.000000000000000000, 0.000000000000000000, 0.000000000000000000 ) ) ;
#101 = PERSON_AND_ORGANIZATION ( #123, #93 ) ;
#102 = VECTOR ( 'NONE', #53, 1000.000000000000000 ) ;
#103 = APPROVAL_DATE_TIME ( #43, #57 ) ;
#104 = PERSON_AND_ORGANIZATION ( #123, #93 ) ;
#105 = AXIS2_PLACEMENT_3D ( 'NONE', #39, #98, #100 ) ;
#106 = CARTESIAN_POINT ( 'NONE',  ( 0.000000000000000000, 0.000000000000000000, 10.00000000000000000 ) ) ;
#107 = VERTEX_POINT ( 'NONE', #168 ) ;
#108 = APPROVAL ( #13, 'UNSPECIFIED' ) ;
#109 = ORIENTED_EDGE ( 'NONE', *, *, #3, .T. ) ;
#110 = CC_DESIGN_APPROVAL ( #194, ( #52 ) ) ;
#111 = AXIS2_PLACEMENT_3D ( 'NONE', #81, #10, #135 ) ;
#112 = VERTEX_POINT ( 'NONE', #167 ) ;
#113 = LINE ( 'NONE', #67, #162 ) ;
#114 = APPLICATION_CONTEXT ( 'configuration controlled 3d designs of mechanical parts and assemblies' ) ;
#115 = FACE_OUTER_BOUND ( 'NONE', #18, .T. ) ;
#116 = DATE_AND_TIME ( #23, #74 ) ;
#117 = DIRECTION ( 'NONE',  ( -0.000000000000000000, -0.000000000000000000, -1.000000000000000000 ) ) ;
#118 = DATE_TIME_ROLE ( 'creation_date' ) ;
#119 = FACE_OUTER_BOUND ( 'NONE', #176, .T. ) ;
#120 = PERSON_AND_ORGANIZATION_ROLE ( 'classification_officer' ) ;
#121 = APPROVAL_PERSON_ORGANIZATION ( #68, #194, #25 ) ;
#122 = CC_DESIGN_PERSON_AND_ORGANIZATION_ASSIGNMENT ( #28, #198, ( #16 ) ) ;
#123 = PERSON ( 'UNSPECIFIED', 'UNSPECIFIED', 'UNSPECIFIED', ('UNSPECIFIED'), ('UNSPECIFIED'), ('UNSPECIFIED') ) ;
#124 = DIRECTION ( 'NONE',  ( 1.000000000000000000, 0.000000000000000000, 0.000000000000000000 ) ) ;
#125 = EDGE_CURVE ( 'NONE', #145, #112, #195, .T. ) ;
#126 = ORIENTED_EDGE ( 'NONE', *, *, #125, .T. ) ;
#127 = DIRECTION ( 'NONE',  ( 0.000000000000000000, 0.000000000000000000, 1.000000000000000000 ) ) ;
#128 = CC_DESIGN_PERSON_AND_ORGANIZATION_ASSIGNMENT ( #72, #83, ( #172 ) ) ;
#129 = APPROVAL_PERSON_ORGANIZATION ( #201, #57, #136 ) ;
#130 = CIRCLE ( 'NONE', #141, 25.39999999999999858 ) ;
#131 = DIRECTION ( 'NONE',  ( 1.000000000000000000, 0.000000000000000000, 0.000000000000000000 ) ) ;
#132 = COORDINATED_UNIVERSAL_TIME_OFFSET ( 2, 0, .AHEAD. ) ;
#133 = CARTESIAN_POINT ( 'NONE',  ( 1.387778780781445676E-14, 0.000000000000000000, 9.999999999999994671 ) ) ;
#134 = COORDINATED_UNIVERSAL_TIME_OFFSET ( 2, 0, .AHEAD. ) ;
#135 = DIRECTION ( 'NONE',  ( 1.000000000000000000, 0.000000000000000000, -0.000000000000000000 ) ) ;
#136 = APPROVAL_ROLE ( '' ) ;
#137 = EDGE_CURVE ( 'NONE', #46, #112, #113, .T. ) ;
#138 = PERSON_AND_ORGANIZATION ( #123, #93 ) ;
#139 = CIRCLE ( 'NONE', #48, 25.40000000000004476 ) ;
#140 = APPLICATION_CONTEXT ( 'configuration controlled 3d designs of mechanical parts and assemblies' ) ;
#141 = AXIS2_PLACEMENT_3D ( 'NONE', #55, #196, #8 ) ;
#142 = CARTESIAN_POINT ( 'NONE',  ( 2.000102180355122047E-14, 0.000000000000000000, 6.720421835308382441 ) ) ;
#143 = CC_DESIGN_DATE_AND_TIME_ASSIGNMENT ( #116, #118, ( #52 ) ) ;
#144 = EDGE_CURVE ( 'NONE', #46, #107, #188, .T. ) ;
#145 = VERTEX_POINT ( 'NONE', #197 ) ;
#146 = ADVANCED_BREP_SHAPE_REPRESENTATION ( '010-0501E_N-BK7_PCV_window', ( #66, #64 ), #178 ) ;
#147 = LOCAL_TIME ( 14, 56, 41.00000000000000000, #183 ) ;
#148 = CYLINDRICAL_SURFACE ( 'NONE', #36, 25.39999999999999858 ) ;
#149 = DESIGN_CONTEXT ( 'detailed design', #140, 'design' ) ;
#150 = DIRECTION ( 'NONE',  ( 1.224646799147353207E-16, -1.000000000000000000, 0.000000000000000000 ) ) ;
#151 = CARTESIAN_POINT ( 'NONE',  ( 0.000000000000000000, 0.000000000000000000, 0.000000000000000000 ) ) ;
#152 = CARTESIAN_POINT ( 'NONE',  ( 0.000000000000000000, 0.000000000000000000, 10.00000000000000000 ) ) ;
#153 = DIRECTION ( 'NONE',  ( 1.000000000000000000, 0.000000000000000000, 0.000000000000000000 ) ) ;
#154 = DIRECTION ( 'NONE',  ( -0.000000000000000000, -0.000000000000000000, -1.000000000000000000 ) ) ;
#155 = COORDINATED_UNIVERSAL_TIME_OFFSET ( 2, 0, .AHEAD. ) ;
#156 = EDGE_CURVE ( 'NONE', #107, #46, #139, .T. ) ;
#157 = SHAPE_DEFINITION_REPRESENTATION ( #1, #146 ) ;
#158 = APPROVAL_DATE_TIME ( #73, #108 ) ;
#159 = ORIENTED_EDGE ( 'NONE', *, *, #3, .F. ) ;
#160 = ORIENTED_EDGE ( 'NONE', *, *, #163, .T. ) ;
#161 = LOCAL_TIME ( 14, 56, 41.00000000000000000, #155 ) ;
#162 = VECTOR ( 'NONE', #117, 1000.000000000000000 ) ;
#163 = EDGE_CURVE ( 'NONE', #107, #145, #58, .T. ) ;
#164 = ORIENTED_EDGE ( 'NONE', *, *, #156, .F. ) ;
#165 = DIRECTION ( 'NONE',  ( 1.000000000000000000, 1.224646799147353207E-16, 0.000000000000000000 ) ) ;
#166 = CC_DESIGN_PERSON_AND_ORGANIZATION_ASSIGNMENT ( #87, #120, ( #19 ) ) ;
#167 = CARTESIAN_POINT ( 'NONE',  ( -25.39999999999999858, 0.000000000000000000, 0.000000000000000000 ) ) ;
#168 = CARTESIAN_POINT ( 'NONE',  ( 25.40000000000005542, 3.110602869834283965E-15, 9.999999999999994671 ) ) ;
#169 = PERSON_AND_ORGANIZATION_ROLE ( 'creator' ) ;
#170 = ADVANCED_FACE ( 'NONE', ( #115 ), #182, .F. ) ;
#171 = PERSON_AND_ORGANIZATION_ROLE ( 'design_supplier' ) ;
#172 = PRODUCT ( '010-0501E_N-BK7_PCV_window', '010-0501E_N-BK7_PCV_window', '', ( #11 ) ) ;
#173 = APPROVAL_STATUS ( 'not_yet_approved' ) ;
#174 = AXIS2_PLACEMENT_3D ( 'NONE', #82, #150, #165 ) ;
#175 = SPHERICAL_SURFACE ( 'NONE', #17, 100.0000000000000000 ) ;
#176 = EDGE_LOOP ( 'NONE', ( #47, #160, #126, #89 ) ) ;
#177 = PRODUCT_RELATED_PRODUCT_CATEGORY ( 'detail', '', ( #172 ) ) ;
#178 =( GEOMETRIC_REPRESENTATION_CONTEXT ( 3 ) GLOBAL_UNCERTAINTY_ASSIGNED_CONTEXT ( ( #21 ) ) GLOBAL_UNIT_ASSIGNED_CONTEXT ( ( #26, #71, #42 ) ) REPRESENTATION_CONTEXT ( 'NONE', 'WORKASPACE' ) );
#179 = AXIS2_PLACEMENT_3D ( 'NONE', #95, #63, #127 ) ;
#180 = EDGE_LOOP ( 'NONE', ( #32, #164, #109 ) ) ;
#181 = ADVANCED_FACE ( 'NONE', ( #119 ), #148, .T. ) ;
#182 = SPHERICAL_SURFACE ( 'NONE', #41, 100.0000000000000000 ) ;
#183 = COORDINATED_UNIVERSAL_TIME_OFFSET ( 2, 0, .AHEAD. ) ;
#184 = DIRECTION ( 'NONE',  ( 0.000000000000000000, -1.000000000000000000, -0.000000000000000000 ) ) ;
#185 = DIRECTION ( 'NONE',  ( -0.000000000000000000, -0.000000000000000000, -1.000000000000000000 ) ) ;
#186 = CALENDAR_DATE ( 2021, 25, 2 ) ;
#187 = APPROVAL_STATUS ( 'not_yet_approved' ) ;
#188 = CIRCLE ( 'NONE', #192, 25.40000000000004476 ) ;
#189 = DIRECTION ( 'NONE',  ( -0.000000000000000000, -0.000000000000000000, -1.000000000000000000 ) ) ;
#190 = ORIENTED_EDGE ( 'NONE', *, *, #137, .T. ) ;
#191 = ORIENTED_EDGE ( 'NONE', *, *, #156, .T. ) ;
#192 = AXIS2_PLACEMENT_3D ( 'NONE', #133, #38, #131 ) ;
#193 = ORIENTED_EDGE ( 'NONE', *, *, #50, .F. ) ;
#194 = APPROVAL ( #173, 'UNSPECIFIED' ) ;
#195 = CIRCLE ( 'NONE', #105, 25.39999999999999858 ) ;
#196 = DIRECTION ( 'NONE',  ( 0.000000000000000000, 0.000000000000000000, 1.000000000000000000 ) ) ;
#197 = CARTESIAN_POINT ( 'NONE',  ( 25.39999999999999858, 3.110602869834276865E-15, 0.000000000000000000 ) ) ;
#198 = PERSON_AND_ORGANIZATION_ROLE ( 'creator' ) ;
#199 = APPROVAL_DATE_TIME ( #99, #194 ) ;
#200 = CARTESIAN_POINT ( 'NONE',  ( 1.387778780781445676E-14, 0.000000000000000000, 9.999999999999994671 ) ) ;
#201 = PERSON_AND_ORGANIZATION ( #123, #93 ) ;
ENDSEC;
END-ISO-10303-21;
