ISO-10303-21;
HEADER;
FILE_DESCRIPTION (( 'STEP AP203' ),
    '1' );
FILE_NAME ('010-0250E_N-BK7_PCV_window.STEP',
    '2021-02-25T11:25:23',
    ( '' ),
    ( '' ),
    'SwSTEP 2.0',
    'SolidWorks 2019',
    '' );
FILE_SCHEMA (( 'CONFIG_CONTROL_DESIGN' ));
ENDSEC;

DATA;
#1 = FACE_OUTER_BOUND ( 'NONE', #144, .T. ) ;
#2 = APPROVAL_PERSON_ORGANIZATION ( #183, #150, #195 ) ;
#3 = DIRECTION ( 'NONE',  ( 1.000000000000000000, 0.000000000000000000, 0.000000000000000000 ) ) ;
#4 = ADVANCED_FACE ( 'NONE', ( #98 ), #28, .F. ) ;
#5 = LINE ( 'NONE', #111, #16 ) ;
#6 = CC_DESIGN_SECURITY_CLASSIFICATION ( #136, ( #142 ) ) ;
#7 = ORIENTED_EDGE ( 'NONE', *, *, #64, .F. ) ;
#8 = DESIGN_CONTEXT ( 'detailed design', #140, 'design' ) ;
#9 = CIRCLE ( 'NONE', #151, 12.69999999976757543 ) ;
#10 = MECHANICAL_CONTEXT ( 'NONE', #56, 'mechanical' ) ;
#11 = ORIENTED_EDGE ( 'NONE', *, *, #64, .T. ) ;
#12 = CALENDAR_DATE ( 2021, 25, 2 ) ;
#13 = ORIENTED_EDGE ( 'NONE', *, *, #112, .F. ) ;
#14 = APPROVAL_ROLE ( '' ) ;
#15 = CC_DESIGN_PERSON_AND_ORGANIZATION_ASSIGNMENT ( #143, #71, ( #142 ) ) ;
#16 = VECTOR ( 'NONE', #124, 1000.000000000000000 ) ;
#17 = CARTESIAN_POINT ( 'NONE',  ( -12.69999999976634975, 0.000000000000000000, 6.000000000000227374 ) ) ;
#18 = FACE_OUTER_BOUND ( 'NONE', #164, .T. ) ;
#19 = EDGE_CURVE ( 'NONE', #60, #103, #9, .T. ) ;
#20 = DIRECTION ( 'NONE',  ( 1.000000000000000000, 0.000000000000000000, 0.000000000000000000 ) ) ;
#21 = DIRECTION ( 'NONE',  ( 0.000000000000000000, 0.000000000000000000, 1.000000000000000000 ) ) ;
#22 = ORIENTED_EDGE ( 'NONE', *, *, #106, .T. ) ;
#23 = DATE_AND_TIME ( #12, #172 ) ;
#24 = CC_DESIGN_APPROVAL ( #29, ( #142 ) ) ;
#25 = VERTEX_POINT ( 'NONE', #198 ) ;
#26 = AXIS2_PLACEMENT_3D ( 'NONE', #190, #188, #154 ) ;
#27 = COORDINATED_UNIVERSAL_TIME_OFFSET ( 2, 0, .AHEAD. ) ;
#28 = PLANE ( 'NONE',  #74 ) ;
#29 = APPROVAL ( #48, 'UNSPECIFIED' ) ;
#30 = APPROVAL_STATUS ( 'not_yet_approved' ) ;
#31 = DIRECTION ( 'NONE',  ( -0.000000000000000000, -0.000000000000000000, -1.000000000000000000 ) ) ;
#32 = EDGE_CURVE ( 'NONE', #60, #25, #61, .T. ) ;
#33 = LOCAL_TIME ( 13, 25, 23.00000000000000000, #43 ) ;
#34 = AXIS2_PLACEMENT_3D ( 'NONE', #191, #94, #20 ) ;
#35 = DIRECTION ( 'NONE',  ( 1.224646799147353207E-16, -1.000000000000000000, 0.000000000000000000 ) ) ;
#36 = LOCAL_TIME ( 13, 25, 23.00000000000000000, #199 ) ;
#37 = CC_DESIGN_DATE_AND_TIME_ASSIGNMENT ( #102, #163, ( #136 ) ) ;
#38 = DIRECTION ( 'NONE',  ( -1.000000000000000000, 0.000000000000000000, 0.000000000000000000 ) ) ;
#39 = SPHERICAL_SURFACE ( 'NONE', #26, 10000.00000000000000 ) ;
#40 = CARTESIAN_POINT ( 'NONE',  ( 0.000000000000000000, 0.000000000000000000, 6.000000000000000000 ) ) ;
#41 = EDGE_LOOP ( 'NONE', ( #141, #22, #100, #196 ) ) ;
#42 = ORIENTED_EDGE ( 'NONE', *, *, #106, .F. ) ;
#43 = COORDINATED_UNIVERSAL_TIME_OFFSET ( 2, 0, .AHEAD. ) ;
#44 = DIRECTION ( 'NONE',  ( 1.000000000000000000, 0.000000000000000000, -0.000000000000000000 ) ) ;
#45 = AXIS2_PLACEMENT_3D ( 'NONE', #125, #77, #110 ) ;
#46 = APPROVAL_STATUS ( 'not_yet_approved' ) ;
#47 = CARTESIAN_POINT ( 'NONE',  ( 1.226449497515602616E-12, 0.000000000000000000, 6.000000000000227374 ) ) ;
#48 = APPROVAL_STATUS ( 'not_yet_approved' ) ;
#49 = EDGE_CURVE ( 'NONE', #60, #177, #133, .T. ) ;
#50 = CC_DESIGN_DATE_AND_TIME_ASSIGNMENT ( #146, #184, ( #70 ) ) ;
#51 = SPHERICAL_SURFACE ( 'NONE', #169, 10000.00000000000000 ) ;
#52 = VECTOR ( 'NONE', #31, 1000.000000000000000 ) ;
#53 = DIRECTION ( 'NONE',  ( 0.000000000000000000, -1.000000000000000000, -0.000000000000000000 ) ) ;
#54 = APPLICATION_PROTOCOL_DEFINITION ( 'international standard', 'config_control_design', 1994, #56 ) ;
#55 = CARTESIAN_POINT ( 'NONE',  ( 0.000000000000000000, 0.000000000000000000, 6.000000000000000000 ) ) ;
#56 = APPLICATION_CONTEXT ( 'configuration controlled 3d designs of mechanical parts and assemblies' ) ;
#57 = CARTESIAN_POINT ( 'NONE',  ( -12.69999999999999929, 0.000000000000000000, 6.000000000000000000 ) ) ;
#58 = PERSON_AND_ORGANIZATION ( #185, #92 ) ;
#59 = VERTEX_POINT ( 'NONE', #122 ) ;
#60 = VERTEX_POINT ( 'NONE', #17 ) ;
#61 = LINE ( 'NONE', #57, #52 ) ;
#62 = AXIS2_PLACEMENT_3D ( 'NONE', #175, #156, #21 ) ;
#63 = APPROVAL_PERSON_ORGANIZATION ( #73, #29, #197 ) ;
#64 = EDGE_CURVE ( 'NONE', #103, #177, #189, .T. ) ;
#65 = DIRECTION ( 'NONE',  ( 1.000000000000000000, 0.000000000000000000, 0.000000000000000000 ) ) ;
#66 = PRODUCT ( '010-0250E_N-BK7_PCV_window', '010-0250E_N-BK7_PCV_window', '', ( #10 ) ) ;
#67 = DIRECTION ( 'NONE',  ( 1.000000000000000000, 0.000000000000000000, 0.000000000000000000 ) ) ;
#68 = CARTESIAN_POINT ( 'NONE',  ( 0.000000000000000000, 0.000000000000000000, 0.000000000000000000 ) ) ;
#69 = ORIENTED_EDGE ( 'NONE', *, *, #132, .F. ) ;
#70 = PRODUCT_DEFINITION ( 'UNKNOWN', '', #142, #8 ) ;
#71 = PERSON_AND_ORGANIZATION_ROLE ( 'creator' ) ;
#72 = SHAPE_DEFINITION_REPRESENTATION ( #135, #78 ) ;
#73 = PERSON_AND_ORGANIZATION ( #185, #92 ) ;
#74 = AXIS2_PLACEMENT_3D ( 'NONE', #130, #180, #44 ) ;
#75 = ADVANCED_FACE ( 'NONE', ( #1 ), #51, .F. ) ;
#76 = CC_DESIGN_PERSON_AND_ORGANIZATION_ASSIGNMENT ( #148, #119, ( #70 ) ) ;
#77 = DIRECTION ( 'NONE',  ( 0.000000000000000000, 0.000000000000000000, 1.000000000000000000 ) ) ;
#78 = ADVANCED_BREP_SHAPE_REPRESENTATION ( '010-0250E_N-BK7_PCV_window', ( #155, #34 ), #121 ) ;
#79 = CARTESIAN_POINT ( 'NONE',  ( 1.226449497515602616E-12, 0.000000000000000000, 6.000000000000227374 ) ) ;
#80 = DIRECTION ( 'NONE',  ( -0.000000000000000000, -0.000000000000000000, -1.000000000000000000 ) ) ;
#81 = PRODUCT_RELATED_PRODUCT_CATEGORY ( 'detail', '', ( #66 ) ) ;
#82 = CIRCLE ( 'NONE', #86, 12.69999999976757543 ) ;
#83 = CYLINDRICAL_SURFACE ( 'NONE', #149, 12.69999999999999929 ) ;
#84 = CYLINDRICAL_SURFACE ( 'NONE', #101, 12.69999999999999929 ) ;
#85 = ADVANCED_FACE ( 'NONE', ( #18 ), #84, .T. ) ;
#86 = AXIS2_PLACEMENT_3D ( 'NONE', #79, #152, #67 ) ;
#87 = PERSON_AND_ORGANIZATION_ROLE ( 'design_owner' ) ;
#88 = DIRECTION ( 'NONE',  ( -0.000000000000000000, -0.000000000000000000, -1.000000000000000000 ) ) ;
#89 = DATE_AND_TIME ( #129, #161 ) ;
#90 = APPLICATION_PROTOCOL_DEFINITION ( 'international standard', 'config_control_design', 1994, #140 ) ;
#91 = COORDINATED_UNIVERSAL_TIME_OFFSET ( 2, 0, .AHEAD. ) ;
#92 = ORGANIZATION ( 'UNSPECIFIED', 'UNSPECIFIED', '' ) ;
#93 = DIRECTION ( 'NONE',  ( -1.000000000000000000, 0.000000000000000000, 0.000000000000000000 ) ) ;
#94 = DIRECTION ( 'NONE',  ( 0.000000000000000000, 0.000000000000000000, 1.000000000000000000 ) ) ;
#95 = CARTESIAN_POINT ( 'NONE',  ( 12.69999999976880289, 1.555301434902981732E-15, 6.000000000000227374 ) ) ;
#96 = ADVANCED_FACE ( 'NONE', ( #108 ), #39, .F. ) ;
#97 = PERSON_AND_ORGANIZATION_ROLE ( 'design_supplier' ) ;
#98 = FACE_OUTER_BOUND ( 'NONE', #182, .T. ) ;
#99 = CALENDAR_DATE ( 2021, 25, 2 ) ;
#100 = ORIENTED_EDGE ( 'NONE', *, *, #32, .T. ) ;
#101 = AXIS2_PLACEMENT_3D ( 'NONE', #40, #173, #93 ) ;
#102 = DATE_AND_TIME ( #165, #33 ) ;
#103 = VERTEX_POINT ( 'NONE', #95 ) ;
#104 = PERSON_AND_ORGANIZATION ( #185, #92 ) ;
#105 = APPROVAL_DATE_TIME ( #23, #29 ) ;
#106 = EDGE_CURVE ( 'NONE', #103, #60, #82, .T. ) ;
#107 = CC_DESIGN_APPROVAL ( #150, ( #70 ) ) ;
#108 = FACE_OUTER_BOUND ( 'NONE', #117, .T. ) ;
#109 = CC_DESIGN_PERSON_AND_ORGANIZATION_ASSIGNMENT ( #58, #87, ( #66 ) ) ;
#110 = DIRECTION ( 'NONE',  ( 1.000000000000000000, 0.000000000000000000, 0.000000000000000000 ) ) ;
#111 = CARTESIAN_POINT ( 'NONE',  ( 12.69999999999999929, 1.555301434917138433E-15, 6.000000000000000000 ) ) ;
#112 = EDGE_CURVE ( 'NONE', #59, #25, #201, .T. ) ;
#113 = ORIENTED_EDGE ( 'NONE', *, *, #120, .T. ) ;
#114 = DATE_AND_TIME ( #167, #137 ) ;
#115 = ORIENTED_EDGE ( 'NONE', *, *, #19, .F. ) ;
#116 = PERSON_AND_ORGANIZATION ( #185, #92 ) ;
#117 = EDGE_LOOP ( 'NONE', ( #115, #193, #7 ) ) ;
#118 = CLOSED_SHELL ( 'NONE', ( #96, #85, #194, #4, #75 ) ) ;
#119 = PERSON_AND_ORGANIZATION_ROLE ( 'creator' ) ;
#120 = EDGE_CURVE ( 'NONE', #103, #59, #5, .T. ) ;
#121 =( GEOMETRIC_REPRESENTATION_CONTEXT ( 3 ) GLOBAL_UNCERTAINTY_ASSIGNED_CONTEXT ( ( #158 ) ) GLOBAL_UNIT_ASSIGNED_CONTEXT ( ( #138, #171, #174 ) ) REPRESENTATION_CONTEXT ( 'NONE', 'WORKASPACE' ) );
#122 = CARTESIAN_POINT ( 'NONE',  ( 12.69999999999999929, 1.555301434917138433E-15, 0.000000000000000000 ) ) ;
#123 = CIRCLE ( 'NONE', #45, 12.69999999999999929 ) ;
#124 = DIRECTION ( 'NONE',  ( -0.000000000000000000, -0.000000000000000000, -1.000000000000000000 ) ) ;
#125 = CARTESIAN_POINT ( 'NONE',  ( 0.000000000000000000, 0.000000000000000000, 0.000000000000000000 ) ) ;
#126 = ORIENTED_EDGE ( 'NONE', *, *, #49, .F. ) ;
#127 = PERSON_AND_ORGANIZATION ( #185, #92 ) ;
#128 = DIRECTION ( 'NONE',  ( 1.000000000000000000, 0.000000000000000000, 0.000000000000000000 ) ) ;
#129 = CALENDAR_DATE ( 2021, 25, 2 ) ;
#130 = CARTESIAN_POINT ( 'NONE',  ( 0.000000000000000000, 0.000000000000000000, 0.000000000000000000 ) ) ;
#131 = SECURITY_CLASSIFICATION_LEVEL ( 'unclassified' ) ;
#132 = EDGE_CURVE ( 'NONE', #25, #59, #123, .T. ) ;
#133 = CIRCLE ( 'NONE', #187, 10000.00000000000000 ) ;
#134 = FACE_OUTER_BOUND ( 'NONE', #41, .T. ) ;
#135 = PRODUCT_DEFINITION_SHAPE ( 'NONE', 'NONE',  #70 ) ;
#136 = SECURITY_CLASSIFICATION ( '', '', #131 ) ;
#137 = LOCAL_TIME ( 13, 25, 23.00000000000000000, #91 ) ;
#138 =( LENGTH_UNIT ( ) NAMED_UNIT ( * ) SI_UNIT ( .MILLI., .METRE. ) );
#139 = DIRECTION ( 'NONE',  ( 1.000000000000000000, 1.224646799147353207E-16, 0.000000000000000000 ) ) ;
#140 = APPLICATION_CONTEXT ( 'configuration controlled 3d designs of mechanical parts and assemblies' ) ;
#141 = ORIENTED_EDGE ( 'NONE', *, *, #120, .F. ) ;
#142 = PRODUCT_DEFINITION_FORMATION_WITH_SPECIFIED_SOURCE ( 'ANY', '', #66, .NOT_KNOWN. ) ;
#143 = PERSON_AND_ORGANIZATION ( #185, #92 ) ;
#144 = EDGE_LOOP ( 'NONE', ( #126, #42, #11 ) ) ;
#145 = APPROVAL_DATE_TIME ( #89, #200 ) ;
#146 = DATE_AND_TIME ( #99, #36 ) ;
#147 = ORIENTED_EDGE ( 'NONE', *, *, #19, .T. ) ;
#148 = PERSON_AND_ORGANIZATION ( #185, #92 ) ;
#149 = AXIS2_PLACEMENT_3D ( 'NONE', #55, #80, #38 ) ;
#150 = APPROVAL ( #46, 'UNSPECIFIED' ) ;
#151 = AXIS2_PLACEMENT_3D ( 'NONE', #47, #88, #128 ) ;
#152 = DIRECTION ( 'NONE',  ( -0.000000000000000000, -0.000000000000000000, -1.000000000000000000 ) ) ;
#153 = CARTESIAN_POINT ( 'NONE',  ( 1.226449497515602616E-12, 0.000000000000000000, 10005.99193549674783 ) ) ;
#154 = DIRECTION ( 'NONE',  ( 1.000000000000000000, 0.000000000000000000, 0.000000000000000000 ) ) ;
#155 = MANIFOLD_SOLID_BREP ( 'Cut-Revolve1', #118 ) ;
#156 = DIRECTION ( 'NONE',  ( 0.000000000000000000, 1.000000000000000000, -0.000000000000000000 ) ) ;
#157 = CARTESIAN_POINT ( 'NONE',  ( 1.226449497515602616E-12, 0.000000000000000000, 10005.99193549674783 ) ) ;
#158 = UNCERTAINTY_MEASURE_WITH_UNIT (LENGTH_MEASURE( 1.000000000000000082E-05 ), #138, 'distance_accuracy_value', 'NONE');
#159 = COORDINATED_UNIVERSAL_TIME_OFFSET ( 2, 0, .AHEAD. ) ;
#160 = ORIENTED_EDGE ( 'NONE', *, *, #112, .T. ) ;
#161 = LOCAL_TIME ( 13, 25, 23.00000000000000000, #27 ) ;
#162 = AXIS2_PLACEMENT_3D ( 'NONE', #68, #192, #3 ) ;
#163 = DATE_TIME_ROLE ( 'classification_date' ) ;
#164 = EDGE_LOOP ( 'NONE', ( #147, #113, #160, #166 ) ) ;
#165 = CALENDAR_DATE ( 2021, 25, 2 ) ;
#166 = ORIENTED_EDGE ( 'NONE', *, *, #32, .F. ) ;
#167 = CALENDAR_DATE ( 2021, 25, 2 ) ;
#168 = APPROVAL_PERSON_ORGANIZATION ( #104, #200, #14 ) ;
#169 = AXIS2_PLACEMENT_3D ( 'NONE', #153, #53, #65 ) ;
#170 = CC_DESIGN_PERSON_AND_ORGANIZATION_ASSIGNMENT ( #116, #97, ( #142 ) ) ;
#171 =( NAMED_UNIT ( * ) PLANE_ANGLE_UNIT ( ) SI_UNIT ( $, .RADIAN. ) );
#172 = LOCAL_TIME ( 13, 25, 23.00000000000000000, #159 ) ;
#173 = DIRECTION ( 'NONE',  ( -0.000000000000000000, -0.000000000000000000, -1.000000000000000000 ) ) ;
#174 =( NAMED_UNIT ( * ) SI_UNIT ( $, .STERADIAN. ) SOLID_ANGLE_UNIT ( ) );
#175 = CARTESIAN_POINT ( 'NONE',  ( 1.226449497515602616E-12, 0.000000000000000000, 10005.99193549674783 ) ) ;
#176 = CARTESIAN_POINT ( 'NONE',  ( 1.838772897089278962E-12, 0.000000000000000000, 5.991935496748368450 ) ) ;
#177 = VERTEX_POINT ( 'NONE', #176 ) ;
#178 = CC_DESIGN_PERSON_AND_ORGANIZATION_ASSIGNMENT ( #127, #181, ( #136 ) ) ;
#179 = APPROVAL_DATE_TIME ( #114, #150 ) ;
#180 = DIRECTION ( 'NONE',  ( 0.000000000000000000, 0.000000000000000000, 1.000000000000000000 ) ) ;
#181 = PERSON_AND_ORGANIZATION_ROLE ( 'classification_officer' ) ;
#182 = EDGE_LOOP ( 'NONE', ( #69, #13 ) ) ;
#183 = PERSON_AND_ORGANIZATION ( #185, #92 ) ;
#184 = DATE_TIME_ROLE ( 'creation_date' ) ;
#185 = PERSON ( 'UNSPECIFIED', 'UNSPECIFIED', 'UNSPECIFIED', ('UNSPECIFIED'), ('UNSPECIFIED'), ('UNSPECIFIED') ) ;
#186 = CC_DESIGN_APPROVAL ( #200, ( #136 ) ) ;
#187 = AXIS2_PLACEMENT_3D ( 'NONE', #157, #35, #139 ) ;
#188 = DIRECTION ( 'NONE',  ( 0.000000000000000000, -1.000000000000000000, -0.000000000000000000 ) ) ;
#189 = CIRCLE ( 'NONE', #62, 10000.00000000000000 ) ;
#190 = CARTESIAN_POINT ( 'NONE',  ( 1.226449497515602616E-12, 0.000000000000000000, 10005.99193549674783 ) ) ;
#191 = CARTESIAN_POINT ( 'NONE',  ( 0.000000000000000000, 0.000000000000000000, 0.000000000000000000 ) ) ;
#192 = DIRECTION ( 'NONE',  ( 0.000000000000000000, 0.000000000000000000, 1.000000000000000000 ) ) ;
#193 = ORIENTED_EDGE ( 'NONE', *, *, #49, .T. ) ;
#194 = ADVANCED_FACE ( 'NONE', ( #134 ), #83, .T. ) ;
#195 = APPROVAL_ROLE ( '' ) ;
#196 = ORIENTED_EDGE ( 'NONE', *, *, #132, .T. ) ;
#197 = APPROVAL_ROLE ( '' ) ;
#198 = CARTESIAN_POINT ( 'NONE',  ( -12.69999999999999929, 0.000000000000000000, 0.000000000000000000 ) ) ;
#199 = COORDINATED_UNIVERSAL_TIME_OFFSET ( 2, 0, .AHEAD. ) ;
#200 = APPROVAL ( #30, 'UNSPECIFIED' ) ;
#201 = CIRCLE ( 'NONE', #162, 12.69999999999999929 ) ;
ENDSEC;
END-ISO-10303-21;
