ISO-10303-21;
HEADER;
FILE_DESCRIPTION (( 'STEP AP203' ),
    '1' );
FILE_NAME ('010-0240E_N-BK7_PCV_window.STEP',
    '2021-02-25T11:24:47',
    ( '' ),
    ( '' ),
    'SwSTEP 2.0',
    'SolidWorks 2019',
    '' );
FILE_SCHEMA (( 'CONFIG_CONTROL_DESIGN' ));
ENDSEC;

DATA;
#1 = ADVANCED_FACE ( 'NONE', ( #90 ), #63, .F. ) ;
#2 = DIRECTION ( 'NONE',  ( -0.000000000000000000, -0.000000000000000000, -1.000000000000000000 ) ) ;
#3 = PRODUCT_DEFINITION_SHAPE ( 'NONE', 'NONE',  #110 ) ;
#4 = APPROVAL_PERSON_ORGANIZATION ( #65, #47, #178 ) ;
#5 = EDGE_CURVE ( 'NONE', #143, #175, #101, .T. ) ;
#6 = CIRCLE ( 'NONE', #114, 8000.000000000000000 ) ;
#7 = EDGE_LOOP ( 'NONE', ( #118, #58, #26, #70 ) ) ;
#8 = APPROVAL_PERSON_ORGANIZATION ( #155, #119, #113 ) ;
#9 = ADVANCED_FACE ( 'NONE', ( #61 ), #121, .F. ) ;
#10 = PERSON_AND_ORGANIZATION ( #84, #176 ) ;
#11 = APPLICATION_CONTEXT ( 'configuration controlled 3d designs of mechanical parts and assemblies' ) ;
#12 = CARTESIAN_POINT ( 'NONE',  ( 9.818534874028728154E-13, 0.000000000000000000, 8005.989919368648771 ) ) ;
#13 = AXIS2_PLACEMENT_3D ( 'NONE', #45, #106, #166 ) ;
#14 = CARTESIAN_POINT ( 'NONE',  ( 12.69999999999999929, 1.555301434917138433E-15, 0.000000000000000000 ) ) ;
#15 = PRODUCT_RELATED_PRODUCT_CATEGORY ( 'detail', '', ( #21 ) ) ;
#16 = DATE_TIME_ROLE ( 'creation_date' ) ;
#17 = DIRECTION ( 'NONE',  ( 0.000000000000000000, 0.000000000000000000, 1.000000000000000000 ) ) ;
#18 = CARTESIAN_POINT ( 'NONE',  ( 9.818534874028728154E-13, 0.000000000000000000, 8005.989919368648771 ) ) ;
#19 = SECURITY_CLASSIFICATION ( '', '', #200 ) ;
#20 = CYLINDRICAL_SURFACE ( 'NONE', #39, 12.69999999999999929 ) ;
#21 = PRODUCT ( '010-0240E_N-BK7_PCV_window', '010-0240E_N-BK7_PCV_window', '', ( #127 ) ) ;
#22 = AXIS2_PLACEMENT_3D ( 'NONE', #52, #201, #141 ) ;
#23 = CIRCLE ( 'NONE', #13, 12.70000000032705856 ) ;
#24 = EDGE_LOOP ( 'NONE', ( #41, #198, #40 ) ) ;
#25 = LOCAL_TIME ( 13, 24, 47.00000000000000000, #151 ) ;
#26 = ORIENTED_EDGE ( 'NONE', *, *, #103, .T. ) ;
#27 = SHAPE_DEFINITION_REPRESENTATION ( #3, #164 ) ;
#28 = CARTESIAN_POINT ( 'NONE',  ( -12.69999999999999929, 0.000000000000000000, 0.000000000000000000 ) ) ;
#29 = CARTESIAN_POINT ( 'NONE',  ( 0.000000000000000000, 0.000000000000000000, 0.000000000000000000 ) ) ;
#30 = DIRECTION ( 'NONE',  ( -0.000000000000000000, -0.000000000000000000, -1.000000000000000000 ) ) ;
#31 = EDGE_CURVE ( 'NONE', #147, #143, #129, .T. ) ;
#32 = DIRECTION ( 'NONE',  ( 0.000000000000000000, 0.000000000000000000, 1.000000000000000000 ) ) ;
#33 = CARTESIAN_POINT ( 'NONE',  ( 0.000000000000000000, 0.000000000000000000, 6.000000000000000000 ) ) ;
#34 = AXIS2_PLACEMENT_3D ( 'NONE', #123, #184, #167 ) ;
#35 = UNCERTAINTY_MEASURE_WITH_UNIT (LENGTH_MEASURE( 1.000000000000000082E-05 ), #140, 'distance_accuracy_value', 'NONE');
#36 =( NAMED_UNIT ( * ) SI_UNIT ( $, .STERADIAN. ) SOLID_ANGLE_UNIT ( ) );
#37 = APPLICATION_PROTOCOL_DEFINITION ( 'international standard', 'config_control_design', 1994, #83 ) ;
#38 = EDGE_CURVE ( 'NONE', #145, #68, #144, .T. ) ;
#39 = AXIS2_PLACEMENT_3D ( 'NONE', #33, #2, #53 ) ;
#40 = ORIENTED_EDGE ( 'NONE', *, *, #163, .T. ) ;
#41 = ORIENTED_EDGE ( 'NONE', *, *, #5, .F. ) ;
#42 = EDGE_CURVE ( 'NONE', #147, #68, #109, .T. ) ;
#43 = DIRECTION ( 'NONE',  ( -0.000000000000000000, -0.000000000000000000, -1.000000000000000000 ) ) ;
#44 = PERSON_AND_ORGANIZATION_ROLE ( 'design_supplier' ) ;
#45 = CARTESIAN_POINT ( 'NONE',  ( 9.818534874028728154E-13, 0.000000000000000000, 6.000000000000227374 ) ) ;
#46 = PERSON_AND_ORGANIZATION ( #84, #176 ) ;
#47 = APPROVAL ( #111, 'UNSPECIFIED' ) ;
#48 = DIRECTION ( 'NONE',  ( 1.000000000000000000, 0.000000000000000000, 0.000000000000000000 ) ) ;
#49 = DATE_TIME_ROLE ( 'classification_date' ) ;
#50 = CARTESIAN_POINT ( 'NONE',  ( 12.69999999999999929, 1.555301434917138433E-15, 6.000000000000000000 ) ) ;
#51 = DATE_AND_TIME ( #79, #78 ) ;
#52 = CARTESIAN_POINT ( 'NONE',  ( 0.000000000000000000, 0.000000000000000000, 0.000000000000000000 ) ) ;
#53 = DIRECTION ( 'NONE',  ( -1.000000000000000000, 0.000000000000000000, 0.000000000000000000 ) ) ;
#54 = CLOSED_SHELL ( 'NONE', ( #9, #125, #174, #1, #66 ) ) ;
#55 = DIRECTION ( 'NONE',  ( -0.000000000000000000, -0.000000000000000000, -1.000000000000000000 ) ) ;
#56 = CC_DESIGN_APPROVAL ( #60, ( #97 ) ) ;
#57 = APPROVAL_PERSON_ORGANIZATION ( #71, #60, #135 ) ;
#58 = ORIENTED_EDGE ( 'NONE', *, *, #42, .T. ) ;
#59 = MANIFOLD_SOLID_BREP ( 'Cut-Revolve1', #54 ) ;
#60 = APPROVAL ( #181, 'UNSPECIFIED' ) ;
#61 = FACE_OUTER_BOUND ( 'NONE', #192, .T. ) ;
#62 = AXIS2_PLACEMENT_3D ( 'NONE', #134, #183, #48 ) ;
#63 = PLANE ( 'NONE',  #173 ) ;
#64 = CARTESIAN_POINT ( 'NONE',  ( 9.818534874028728154E-13, 0.000000000000000000, 8005.989919368648771 ) ) ;
#65 = PERSON_AND_ORGANIZATION ( #84, #176 ) ;
#66 = ADVANCED_FACE ( 'NONE', ( #75 ), #124, .F. ) ;
#67 = AXIS2_PLACEMENT_3D ( 'NONE', #12, #72, #169 ) ;
#68 = VERTEX_POINT ( 'NONE', #14 ) ;
#69 = LOCAL_TIME ( 13, 24, 47.00000000000000000, #136 ) ;
#70 = ORIENTED_EDGE ( 'NONE', *, *, #159, .F. ) ;
#71 = PERSON_AND_ORGANIZATION ( #84, #176 ) ;
#72 = DIRECTION ( 'NONE',  ( 0.000000000000000000, -1.000000000000000000, -0.000000000000000000 ) ) ;
#73 = CC_DESIGN_PERSON_AND_ORGANIZATION_ASSIGNMENT ( #46, #150, ( #97 ) ) ;
#74 = VECTOR ( 'NONE', #55, 1000.000000000000000 ) ;
#75 = FACE_OUTER_BOUND ( 'NONE', #24, .T. ) ;
#76 = PERSON_AND_ORGANIZATION ( #84, #176 ) ;
#77 = DIRECTION ( 'NONE',  ( 0.000000000000000000, 0.000000000000000000, 1.000000000000000000 ) ) ;
#78 = LOCAL_TIME ( 13, 24, 47.00000000000000000, #94 ) ;
#79 = CALENDAR_DATE ( 2021, 25, 2 ) ;
#80 = LINE ( 'NONE', #82, #74 ) ;
#81 = CC_DESIGN_DATE_AND_TIME_ASSIGNMENT ( #186, #16, ( #110 ) ) ;
#82 = CARTESIAN_POINT ( 'NONE',  ( -12.69999999999999929, 0.000000000000000000, 6.000000000000000000 ) ) ;
#83 = APPLICATION_CONTEXT ( 'configuration controlled 3d designs of mechanical parts and assemblies' ) ;
#84 = PERSON ( 'UNSPECIFIED', 'UNSPECIFIED', 'UNSPECIFIED', ('UNSPECIFIED'), ('UNSPECIFIED'), ('UNSPECIFIED') ) ;
#85 = AXIS2_PLACEMENT_3D ( 'NONE', #64, #199, #107 ) ;
#86 = ORIENTED_EDGE ( 'NONE', *, *, #38, .T. ) ;
#87 = CC_DESIGN_PERSON_AND_ORGANIZATION_ASSIGNMENT ( #76, #44, ( #97 ) ) ;
#88 = ORIENTED_EDGE ( 'NONE', *, *, #38, .F. ) ;
#89 = ORIENTED_EDGE ( 'NONE', *, *, #31, .T. ) ;
#90 = FACE_OUTER_BOUND ( 'NONE', #162, .T. ) ;
#91 = PERSON_AND_ORGANIZATION_ROLE ( 'classification_officer' ) ;
#92 = ORIENTED_EDGE ( 'NONE', *, *, #42, .F. ) ;
#93 = CARTESIAN_POINT ( 'NONE',  ( 0.000000000000000000, 0.000000000000000000, 6.000000000000000000 ) ) ;
#94 = COORDINATED_UNIVERSAL_TIME_OFFSET ( 2, 0, .AHEAD. ) ;
#95 = DIRECTION ( 'NONE',  ( 1.000000000000000000, 0.000000000000000000, 0.000000000000000000 ) ) ;
#96 = APPROVAL_DATE_TIME ( #105, #47 ) ;
#97 = PRODUCT_DEFINITION_FORMATION_WITH_SPECIFIED_SOURCE ( 'ANY', '', #21, .NOT_KNOWN. ) ;
#98 = EDGE_CURVE ( 'NONE', #143, #147, #23, .T. ) ;
#99 = CARTESIAN_POINT ( 'NONE',  ( 1.471712207061814216E-12, 0.000000000000000000, 5.989919368648344289 ) ) ;
#100 = DATE_AND_TIME ( #172, #146 ) ;
#101 = CIRCLE ( 'NONE', #85, 8000.000000000000000 ) ;
#102 = COORDINATED_UNIVERSAL_TIME_OFFSET ( 2, 0, .AHEAD. ) ;
#103 = EDGE_CURVE ( 'NONE', #68, #145, #197, .T. ) ;
#104 = DIRECTION ( 'NONE',  ( -1.000000000000000000, 0.000000000000000000, 0.000000000000000000 ) ) ;
#105 = DATE_AND_TIME ( #168, #193 ) ;
#106 = DIRECTION ( 'NONE',  ( -0.000000000000000000, -0.000000000000000000, -1.000000000000000000 ) ) ;
#107 = DIRECTION ( 'NONE',  ( 1.000000000000000000, 1.224646799147353207E-16, 0.000000000000000000 ) ) ;
#108 = COORDINATED_UNIVERSAL_TIME_OFFSET ( 2, 0, .AHEAD. ) ;
#109 = LINE ( 'NONE', #50, #161 ) ;
#110 = PRODUCT_DEFINITION ( 'UNKNOWN', '', #97, #116 ) ;
#111 = APPROVAL_STATUS ( 'not_yet_approved' ) ;
#112 =( GEOMETRIC_REPRESENTATION_CONTEXT ( 3 ) GLOBAL_UNCERTAINTY_ASSIGNED_CONTEXT ( ( #35 ) ) GLOBAL_UNIT_ASSIGNED_CONTEXT ( ( #140, #115, #36 ) ) REPRESENTATION_CONTEXT ( 'NONE', 'WORKASPACE' ) );
#113 = APPROVAL_ROLE ( '' ) ;
#114 = AXIS2_PLACEMENT_3D ( 'NONE', #18, #170, #17 ) ;
#115 =( NAMED_UNIT ( * ) PLANE_ANGLE_UNIT ( ) SI_UNIT ( $, .RADIAN. ) );
#116 = DESIGN_CONTEXT ( 'detailed design', #83, 'design' ) ;
#117 = ORIENTED_EDGE ( 'NONE', *, *, #5, .T. ) ;
#118 = ORIENTED_EDGE ( 'NONE', *, *, #98, .T. ) ;
#119 = APPROVAL ( #188, 'UNSPECIFIED' ) ;
#120 = ORIENTED_EDGE ( 'NONE', *, *, #103, .F. ) ;
#121 = SPHERICAL_SURFACE ( 'NONE', #67, 8000.000000000000000 ) ;
#122 = APPROVAL_DATE_TIME ( #51, #60 ) ;
#123 = CARTESIAN_POINT ( 'NONE',  ( 9.818534874028728154E-13, 0.000000000000000000, 6.000000000000227374 ) ) ;
#124 = SPHERICAL_SURFACE ( 'NONE', #62, 8000.000000000000000 ) ;
#125 = ADVANCED_FACE ( 'NONE', ( #152 ), #194, .T. ) ;
#126 = CALENDAR_DATE ( 2021, 25, 2 ) ;
#127 = MECHANICAL_CONTEXT ( 'NONE', #11, 'mechanical' ) ;
#128 = PERSON_AND_ORGANIZATION ( #84, #176 ) ;
#129 = CIRCLE ( 'NONE', #34, 12.70000000032705856 ) ;
#130 = PERSON_AND_ORGANIZATION ( #84, #176 ) ;
#131 = ORIENTED_EDGE ( 'NONE', *, *, #163, .F. ) ;
#132 = CC_DESIGN_PERSON_AND_ORGANIZATION_ASSIGNMENT ( #130, #189, ( #21 ) ) ;
#133 = EDGE_LOOP ( 'NONE', ( #92, #89, #160, #86 ) ) ;
#134 = CARTESIAN_POINT ( 'NONE',  ( 9.818534874028728154E-13, 0.000000000000000000, 8005.989919368648771 ) ) ;
#135 = APPROVAL_ROLE ( '' ) ;
#136 = COORDINATED_UNIVERSAL_TIME_OFFSET ( 2, 0, .AHEAD. ) ;
#137 = CC_DESIGN_APPROVAL ( #119, ( #110 ) ) ;
#138 = DIRECTION ( 'NONE',  ( 0.000000000000000000, 0.000000000000000000, 1.000000000000000000 ) ) ;
#139 = PERSON_AND_ORGANIZATION_ROLE ( 'creator' ) ;
#140 =( LENGTH_UNIT ( ) NAMED_UNIT ( * ) SI_UNIT ( .MILLI., .METRE. ) );
#141 = DIRECTION ( 'NONE',  ( 1.000000000000000000, 0.000000000000000000, 0.000000000000000000 ) ) ;
#142 = CC_DESIGN_PERSON_AND_ORGANIZATION_ASSIGNMENT ( #10, #91, ( #19 ) ) ;
#143 = VERTEX_POINT ( 'NONE', #165 ) ;
#144 = CIRCLE ( 'NONE', #190, 12.69999999999999929 ) ;
#145 = VERTEX_POINT ( 'NONE', #28 ) ;
#146 = LOCAL_TIME ( 13, 24, 47.00000000000000000, #102 ) ;
#147 = VERTEX_POINT ( 'NONE', #158 ) ;
#148 = CARTESIAN_POINT ( 'NONE',  ( 0.000000000000000000, 0.000000000000000000, 0.000000000000000000 ) ) ;
#149 = DIRECTION ( 'NONE',  ( 1.000000000000000000, 0.000000000000000000, -0.000000000000000000 ) ) ;
#150 = PERSON_AND_ORGANIZATION_ROLE ( 'creator' ) ;
#151 = COORDINATED_UNIVERSAL_TIME_OFFSET ( 2, 0, .AHEAD. ) ;
#152 = FACE_OUTER_BOUND ( 'NONE', #7, .T. ) ;
#153 = FACE_OUTER_BOUND ( 'NONE', #133, .T. ) ;
#154 = AXIS2_PLACEMENT_3D ( 'NONE', #29, #32, #95 ) ;
#155 = PERSON_AND_ORGANIZATION ( #84, #176 ) ;
#156 = APPROVAL_DATE_TIME ( #100, #119 ) ;
#157 = CC_DESIGN_APPROVAL ( #47, ( #19 ) ) ;
#158 = CARTESIAN_POINT ( 'NONE',  ( 12.70000000032804088, 1.555301434957311963E-15, 6.000000000000227374 ) ) ;
#159 = EDGE_CURVE ( 'NONE', #143, #145, #80, .T. ) ;
#160 = ORIENTED_EDGE ( 'NONE', *, *, #159, .T. ) ;
#161 = VECTOR ( 'NONE', #30, 1000.000000000000000 ) ;
#162 = EDGE_LOOP ( 'NONE', ( #88, #120 ) ) ;
#163 = EDGE_CURVE ( 'NONE', #147, #175, #6, .T. ) ;
#164 = ADVANCED_BREP_SHAPE_REPRESENTATION ( '010-0240E_N-BK7_PCV_window', ( #59, #22 ), #112 ) ;
#165 = CARTESIAN_POINT ( 'NONE',  ( -12.70000000032607801, 0.000000000000000000, 6.000000000000227374 ) ) ;
#166 = DIRECTION ( 'NONE',  ( 1.000000000000000000, 0.000000000000000000, 0.000000000000000000 ) ) ;
#167 = DIRECTION ( 'NONE',  ( 1.000000000000000000, 0.000000000000000000, 0.000000000000000000 ) ) ;
#168 = CALENDAR_DATE ( 2021, 25, 2 ) ;
#169 = DIRECTION ( 'NONE',  ( 1.000000000000000000, 0.000000000000000000, 0.000000000000000000 ) ) ;
#170 = DIRECTION ( 'NONE',  ( 0.000000000000000000, 1.000000000000000000, -0.000000000000000000 ) ) ;
#171 = CC_DESIGN_PERSON_AND_ORGANIZATION_ASSIGNMENT ( #128, #139, ( #110 ) ) ;
#172 = CALENDAR_DATE ( 2021, 25, 2 ) ;
#173 = AXIS2_PLACEMENT_3D ( 'NONE', #148, #138, #149 ) ;
#174 = ADVANCED_FACE ( 'NONE', ( #153 ), #20, .T. ) ;
#175 = VERTEX_POINT ( 'NONE', #99 ) ;
#176 = ORGANIZATION ( 'UNSPECIFIED', 'UNSPECIFIED', '' ) ;
#177 = DIRECTION ( 'NONE',  ( 1.000000000000000000, 0.000000000000000000, 0.000000000000000000 ) ) ;
#178 = APPROVAL_ROLE ( '' ) ;
#179 = AXIS2_PLACEMENT_3D ( 'NONE', #93, #43, #104 ) ;
#180 = CARTESIAN_POINT ( 'NONE',  ( 0.000000000000000000, 0.000000000000000000, 0.000000000000000000 ) ) ;
#181 = APPROVAL_STATUS ( 'not_yet_approved' ) ;
#182 = CC_DESIGN_SECURITY_CLASSIFICATION ( #19, ( #97 ) ) ;
#183 = DIRECTION ( 'NONE',  ( 0.000000000000000000, -1.000000000000000000, -0.000000000000000000 ) ) ;
#184 = DIRECTION ( 'NONE',  ( -0.000000000000000000, -0.000000000000000000, -1.000000000000000000 ) ) ;
#185 = CALENDAR_DATE ( 2021, 25, 2 ) ;
#186 = DATE_AND_TIME ( #126, #25 ) ;
#187 = CC_DESIGN_DATE_AND_TIME_ASSIGNMENT ( #196, #49, ( #19 ) ) ;
#188 = APPROVAL_STATUS ( 'not_yet_approved' ) ;
#189 = PERSON_AND_ORGANIZATION_ROLE ( 'design_owner' ) ;
#190 = AXIS2_PLACEMENT_3D ( 'NONE', #180, #77, #177 ) ;
#191 = APPLICATION_PROTOCOL_DEFINITION ( 'international standard', 'config_control_design', 1994, #11 ) ;
#192 = EDGE_LOOP ( 'NONE', ( #195, #117, #131 ) ) ;
#193 = LOCAL_TIME ( 13, 24, 47.00000000000000000, #108 ) ;
#194 = CYLINDRICAL_SURFACE ( 'NONE', #179, 12.69999999999999929 ) ;
#195 = ORIENTED_EDGE ( 'NONE', *, *, #98, .F. ) ;
#196 = DATE_AND_TIME ( #185, #69 ) ;
#197 = CIRCLE ( 'NONE', #154, 12.69999999999999929 ) ;
#198 = ORIENTED_EDGE ( 'NONE', *, *, #31, .F. ) ;
#199 = DIRECTION ( 'NONE',  ( 1.224646799147353207E-16, -1.000000000000000000, 0.000000000000000000 ) ) ;
#200 = SECURITY_CLASSIFICATION_LEVEL ( 'unclassified' ) ;
#201 = DIRECTION ( 'NONE',  ( 0.000000000000000000, 0.000000000000000000, 1.000000000000000000 ) ) ;
ENDSEC;
END-ISO-10303-21;
