ISO-10303-21;
HEADER;
FILE_DESCRIPTION (( 'STEP AP203' ),
    '1' );
FILE_NAME ('010-0235E_N-BK7_PCV_window.STEP',
    '2021-02-25T11:24:17',
    ( '' ),
    ( '' ),
    'SwSTEP 2.0',
    'SolidWorks 2019',
    '' );
FILE_SCHEMA (( 'CONFIG_CONTROL_DESIGN' ));
ENDSEC;

DATA;
#1 = EDGE_CURVE ( 'NONE', #157, #177, #70, .T. ) ;
#2 = VERTEX_POINT ( 'NONE', #176 ) ;
#3 = DIRECTION ( 'NONE',  ( 1.000000000000000000, 0.000000000000000000, 0.000000000000000000 ) ) ;
#4 = AXIS2_PLACEMENT_3D ( 'NONE', #43, #173, #8 ) ;
#5 = DIRECTION ( 'NONE',  ( 0.000000000000000000, -1.000000000000000000, -0.000000000000000000 ) ) ;
#6 = CARTESIAN_POINT ( 'NONE',  ( 7.372574772901430151E-13, 0.000000000000000000, 6005.986559151611800 ) ) ;
#7 = CC_DESIGN_APPROVAL ( #190, ( #160 ) ) ;
#8 = DIRECTION ( 'NONE',  ( 1.000000000000000000, 0.000000000000000000, 0.000000000000000000 ) ) ;
#9 = AXIS2_PLACEMENT_3D ( 'NONE', #159, #169, #152 ) ;
#10 = PERSON_AND_ORGANIZATION ( #182, #98 ) ;
#11 = SHAPE_DEFINITION_REPRESENTATION ( #153, #17 ) ;
#12 = DIRECTION ( 'NONE',  ( 0.000000000000000000, 0.000000000000000000, 1.000000000000000000 ) ) ;
#13 = CC_DESIGN_PERSON_AND_ORGANIZATION_ASSIGNMENT ( #136, #198, ( #20 ) ) ;
#14 = CARTESIAN_POINT ( 'NONE',  ( 12.69999999999999929, 1.555301434917138433E-15, 0.000000000000000000 ) ) ;
#15 = DESIGN_CONTEXT ( 'detailed design', #167, 'design' ) ;
#16 = FACE_OUTER_BOUND ( 'NONE', #178, .T. ) ;
#17 = ADVANCED_BREP_SHAPE_REPRESENTATION ( '010-0235E_N-BK7_PCV_window', ( #74, #150 ), #111 ) ;
#18 = DIRECTION ( 'NONE',  ( 0.000000000000000000, 1.000000000000000000, -0.000000000000000000 ) ) ;
#19 = DIRECTION ( 'NONE',  ( -1.000000000000000000, 0.000000000000000000, 0.000000000000000000 ) ) ;
#20 = PRODUCT_DEFINITION_FORMATION_WITH_SPECIFIED_SOURCE ( 'ANY', '', #128, .NOT_KNOWN. ) ;
#21 = CARTESIAN_POINT ( 'NONE',  ( 7.372574772901430151E-13, 0.000000000000000000, 6.000000000000227374 ) ) ;
#22 = CARTESIAN_POINT ( 'NONE',  ( -12.69999999999999929, 0.000000000000000000, 6.000000000000000000 ) ) ;
#23 = AXIS2_PLACEMENT_3D ( 'NONE', #75, #170, #77 ) ;
#24 = LINE ( 'NONE', #22, #28 ) ;
#25 = ORIENTED_EDGE ( 'NONE', *, *, #1, .F. ) ;
#26 = PERSON_AND_ORGANIZATION_ROLE ( 'classification_officer' ) ;
#27 = APPROVAL_PERSON_ORGANIZATION ( #86, #110, #72 ) ;
#28 = VECTOR ( 'NONE', #92, 1000.000000000000000 ) ;
#29 = COORDINATED_UNIVERSAL_TIME_OFFSET ( 2, 0, .AHEAD. ) ;
#30 = PLANE ( 'NONE',  #133 ) ;
#31 = MECHANICAL_CONTEXT ( 'NONE', #147, 'mechanical' ) ;
#32 = ORIENTED_EDGE ( 'NONE', *, *, #162, .T. ) ;
#33 = PERSON_AND_ORGANIZATION_ROLE ( 'creator' ) ;
#34 = EDGE_CURVE ( 'NONE', #2, #157, #24, .T. ) ;
#35 = DIRECTION ( 'NONE',  ( -1.000000000000000000, 0.000000000000000000, 0.000000000000000000 ) ) ;
#36 = AXIS2_PLACEMENT_3D ( 'NONE', #142, #5, #127 ) ;
#37 = CYLINDRICAL_SURFACE ( 'NONE', #119, 12.69999999999999929 ) ;
#38 = ORIENTED_EDGE ( 'NONE', *, *, #162, .F. ) ;
#39 = EDGE_LOOP ( 'NONE', ( #62, #66, #131 ) ) ;
#40 = CC_DESIGN_APPROVAL ( #110, ( #48 ) ) ;
#41 = DATE_AND_TIME ( #53, #94 ) ;
#42 = DIRECTION ( 'NONE',  ( 1.000000000000000000, 1.224646799147353207E-16, 0.000000000000000000 ) ) ;
#43 = CARTESIAN_POINT ( 'NONE',  ( 0.000000000000000000, 0.000000000000000000, 0.000000000000000000 ) ) ;
#44 =( NAMED_UNIT ( * ) SI_UNIT ( $, .STERADIAN. ) SOLID_ANGLE_UNIT ( ) );
#45 = CARTESIAN_POINT ( 'NONE',  ( 0.000000000000000000, 0.000000000000000000, 6.000000000000000000 ) ) ;
#46 = DIRECTION ( 'NONE',  ( 1.000000000000000000, 0.000000000000000000, 0.000000000000000000 ) ) ;
#47 = CC_DESIGN_PERSON_AND_ORGANIZATION_ASSIGNMENT ( #172, #33, ( #160 ) ) ;
#48 = SECURITY_CLASSIFICATION ( '', '', #118 ) ;
#49 = ORIENTED_EDGE ( 'NONE', *, *, #34, .T. ) ;
#50 = EDGE_CURVE ( 'NONE', #76, #177, #171, .T. ) ;
#51 = AXIS2_PLACEMENT_3D ( 'NONE', #82, #18, #12 ) ;
#52 = LOCAL_TIME ( 13, 24, 17.00000000000000000, #29 ) ;
#53 = CALENDAR_DATE ( 2021, 25, 2 ) ;
#54 = DATE_AND_TIME ( #73, #183 ) ;
#55 = COORDINATED_UNIVERSAL_TIME_OFFSET ( 2, 0, .AHEAD. ) ;
#56 = EDGE_CURVE ( 'NONE', #2, #63, #166, .T. ) ;
#57 = AXIS2_PLACEMENT_3D ( 'NONE', #6, #129, #46 ) ;
#58 = APPLICATION_PROTOCOL_DEFINITION ( 'international standard', 'config_control_design', 1994, #147 ) ;
#59 = LOCAL_TIME ( 13, 24, 17.00000000000000000, #146 ) ;
#60 = UNCERTAINTY_MEASURE_WITH_UNIT (LENGTH_MEASURE( 1.000000000000000082E-05 ), #156, 'distance_accuracy_value', 'NONE');
#61 = CC_DESIGN_PERSON_AND_ORGANIZATION_ASSIGNMENT ( #165, #26, ( #48 ) ) ;
#62 = ORIENTED_EDGE ( 'NONE', *, *, #189, .F. ) ;
#63 = VERTEX_POINT ( 'NONE', #158 ) ;
#64 = PERSON_AND_ORGANIZATION ( #182, #98 ) ;
#65 = FACE_OUTER_BOUND ( 'NONE', #112, .T. ) ;
#66 = ORIENTED_EDGE ( 'NONE', *, *, #56, .T. ) ;
#67 = SPHERICAL_SURFACE ( 'NONE', #36, 6000.000000000000000 ) ;
#68 = ORIENTED_EDGE ( 'NONE', *, *, #56, .F. ) ;
#69 = ADVANCED_FACE ( 'NONE', ( #16 ), #37, .T. ) ;
#70 = CIRCLE ( 'NONE', #9, 12.69999999999999929 ) ;
#71 = PERSON_AND_ORGANIZATION_ROLE ( 'design_supplier' ) ;
#72 = APPROVAL_ROLE ( '' ) ;
#73 = CALENDAR_DATE ( 2021, 25, 2 ) ;
#74 = MANIFOLD_SOLID_BREP ( 'Cut-Revolve1', #114 ) ;
#75 = CARTESIAN_POINT ( 'NONE',  ( 7.372574772901430151E-13, 0.000000000000000000, 6.000000000000227374 ) ) ;
#76 = VERTEX_POINT ( 'NONE', #78 ) ;
#77 = DIRECTION ( 'NONE',  ( 1.000000000000000000, 0.000000000000000000, 0.000000000000000000 ) ) ;
#78 = CARTESIAN_POINT ( 'NONE',  ( 12.70000000004805507, 1.555301434923023532E-15, 6.000000000000227374 ) ) ;
#79 = CC_DESIGN_PERSON_AND_ORGANIZATION_ASSIGNMENT ( #103, #168, ( #128 ) ) ;
#80 = FACE_OUTER_BOUND ( 'NONE', #39, .T. ) ;
#81 = CIRCLE ( 'NONE', #196, 12.70000000004731788 ) ;
#82 = CARTESIAN_POINT ( 'NONE',  ( 7.372574772901430151E-13, 0.000000000000000000, 6005.986559151611800 ) ) ;
#83 = ORIENTED_EDGE ( 'NONE', *, *, #100, .T. ) ;
#84 = AXIS2_PLACEMENT_3D ( 'NONE', #45, #174, #35 ) ;
#85 = LOCAL_TIME ( 13, 24, 17.00000000000000000, #55 ) ;
#86 = PERSON_AND_ORGANIZATION ( #182, #98 ) ;
#87 = ADVANCED_FACE ( 'NONE', ( #139 ), #30, .F. ) ;
#88 = DATE_AND_TIME ( #99, #59 ) ;
#89 = CARTESIAN_POINT ( 'NONE',  ( -12.69999999999999929, 0.000000000000000000, 0.000000000000000000 ) ) ;
#90 = DIRECTION ( 'NONE',  ( 0.000000000000000000, 0.000000000000000000, 1.000000000000000000 ) ) ;
#91 = DATE_AND_TIME ( #186, #52 ) ;
#92 = DIRECTION ( 'NONE',  ( -0.000000000000000000, -0.000000000000000000, -1.000000000000000000 ) ) ;
#93 = COORDINATED_UNIVERSAL_TIME_OFFSET ( 2, 0, .AHEAD. ) ;
#94 = LOCAL_TIME ( 13, 24, 17.00000000000000000, #184 ) ;
#95 = ORIENTED_EDGE ( 'NONE', *, *, #100, .F. ) ;
#96 = FACE_OUTER_BOUND ( 'NONE', #195, .T. ) ;
#97 = VECTOR ( 'NONE', #193, 1000.000000000000000 ) ;
#98 = ORGANIZATION ( 'UNSPECIFIED', 'UNSPECIFIED', '' ) ;
#99 = CALENDAR_DATE ( 2021, 25, 2 ) ;
#100 = EDGE_CURVE ( 'NONE', #177, #157, #175, .T. ) ;
#101 = CALENDAR_DATE ( 2021, 25, 2 ) ;
#102 = CIRCLE ( 'NONE', #23, 12.70000000004731788 ) ;
#103 = PERSON_AND_ORGANIZATION ( #182, #98 ) ;
#104 = CC_DESIGN_DATE_AND_TIME_ASSIGNMENT ( #54, #117, ( #160 ) ) ;
#105 = ORIENTED_EDGE ( 'NONE', *, *, #134, .T. ) ;
#106 = APPROVAL_DATE_TIME ( #91, #190 ) ;
#107 = EDGE_LOOP ( 'NONE', ( #25, #95 ) ) ;
#108 = ADVANCED_FACE ( 'NONE', ( #80 ), #67, .F. ) ;
#109 = CARTESIAN_POINT ( 'NONE',  ( 0.000000000000000000, 0.000000000000000000, 0.000000000000000000 ) ) ;
#110 = APPROVAL ( #149, 'UNSPECIFIED' ) ;
#111 =( GEOMETRIC_REPRESENTATION_CONTEXT ( 3 ) GLOBAL_UNCERTAINTY_ASSIGNED_CONTEXT ( ( #60 ) ) GLOBAL_UNIT_ASSIGNED_CONTEXT ( ( #156, #151, #44 ) ) REPRESENTATION_CONTEXT ( 'NONE', 'WORKASPACE' ) );
#112 = EDGE_LOOP ( 'NONE', ( #163, #200, #83, #123 ) ) ;
#113 = ORIENTED_EDGE ( 'NONE', *, *, #50, .F. ) ;
#114 = CLOSED_SHELL ( 'NONE', ( #108, #120, #69, #87, #126 ) ) ;
#115 = PERSON_AND_ORGANIZATION ( #182, #98 ) ;
#116 = DATE_AND_TIME ( #101, #85 ) ;
#117 = DATE_TIME_ROLE ( 'creation_date' ) ;
#118 = SECURITY_CLASSIFICATION_LEVEL ( 'unclassified' ) ;
#119 = AXIS2_PLACEMENT_3D ( 'NONE', #154, #144, #19 ) ;
#120 = ADVANCED_FACE ( 'NONE', ( #65 ), #130, .T. ) ;
#121 = APPROVAL_PERSON_ORGANIZATION ( #115, #137, #135 ) ;
#122 = DIRECTION ( 'NONE',  ( 1.000000000000000000, 0.000000000000000000, 0.000000000000000000 ) ) ;
#123 = ORIENTED_EDGE ( 'NONE', *, *, #34, .F. ) ;
#124 = APPROVAL_STATUS ( 'not_yet_approved' ) ;
#125 = CARTESIAN_POINT ( 'NONE',  ( 12.69999999999999929, 1.555301434917138433E-15, 6.000000000000000000 ) ) ;
#126 = ADVANCED_FACE ( 'NONE', ( #96 ), #143, .F. ) ;
#127 = DIRECTION ( 'NONE',  ( 1.000000000000000000, 0.000000000000000000, 0.000000000000000000 ) ) ;
#128 = PRODUCT ( '010-0235E_N-BK7_PCV_window', '010-0235E_N-BK7_PCV_window', '', ( #31 ) ) ;
#129 = DIRECTION ( 'NONE',  ( 0.000000000000000000, -1.000000000000000000, -0.000000000000000000 ) ) ;
#130 = CYLINDRICAL_SURFACE ( 'NONE', #84, 12.69999999999999929 ) ;
#131 = ORIENTED_EDGE ( 'NONE', *, *, #134, .F. ) ;
#132 = CC_DESIGN_DATE_AND_TIME_ASSIGNMENT ( #88, #181, ( #48 ) ) ;
#133 = AXIS2_PLACEMENT_3D ( 'NONE', #109, #90, #194 ) ;
#134 = EDGE_CURVE ( 'NONE', #76, #63, #179, .T. ) ;
#135 = APPROVAL_ROLE ( '' ) ;
#136 = PERSON_AND_ORGANIZATION ( #182, #98 ) ;
#137 = APPROVAL ( #148, 'UNSPECIFIED' ) ;
#138 = ORIENTED_EDGE ( 'NONE', *, *, #1, .T. ) ;
#139 = FACE_OUTER_BOUND ( 'NONE', #107, .T. ) ;
#140 = APPLICATION_PROTOCOL_DEFINITION ( 'international standard', 'config_control_design', 1994, #167 ) ;
#141 = AXIS2_PLACEMENT_3D ( 'NONE', #187, #191, #42 ) ;
#142 = CARTESIAN_POINT ( 'NONE',  ( 7.372574772901430151E-13, 0.000000000000000000, 6005.986559151611800 ) ) ;
#143 = SPHERICAL_SURFACE ( 'NONE', #57, 6000.000000000000000 ) ;
#144 = DIRECTION ( 'NONE',  ( -0.000000000000000000, -0.000000000000000000, -1.000000000000000000 ) ) ;
#145 = CC_DESIGN_PERSON_AND_ORGANIZATION_ASSIGNMENT ( #10, #71, ( #20 ) ) ;
#146 = COORDINATED_UNIVERSAL_TIME_OFFSET ( 2, 0, .AHEAD. ) ;
#147 = APPLICATION_CONTEXT ( 'configuration controlled 3d designs of mechanical parts and assemblies' ) ;
#148 = APPROVAL_STATUS ( 'not_yet_approved' ) ;
#149 = APPROVAL_STATUS ( 'not_yet_approved' ) ;
#150 = AXIS2_PLACEMENT_3D ( 'NONE', #192, #199, #122 ) ;
#151 =( NAMED_UNIT ( * ) PLANE_ANGLE_UNIT ( ) SI_UNIT ( $, .RADIAN. ) );
#152 = DIRECTION ( 'NONE',  ( 1.000000000000000000, 0.000000000000000000, 0.000000000000000000 ) ) ;
#153 = PRODUCT_DEFINITION_SHAPE ( 'NONE', 'NONE',  #160 ) ;
#154 = CARTESIAN_POINT ( 'NONE',  ( 0.000000000000000000, 0.000000000000000000, 6.000000000000000000 ) ) ;
#155 = APPROVAL_PERSON_ORGANIZATION ( #64, #190, #188 ) ;
#156 =( LENGTH_UNIT ( ) NAMED_UNIT ( * ) SI_UNIT ( .MILLI., .METRE. ) );
#157 = VERTEX_POINT ( 'NONE', #89 ) ;
#158 = CARTESIAN_POINT ( 'NONE',  ( 1.104651517034348863E-12, 0.000000000000000000, 5.986559151612169671 ) ) ;
#159 = CARTESIAN_POINT ( 'NONE',  ( 0.000000000000000000, 0.000000000000000000, 0.000000000000000000 ) ) ;
#160 = PRODUCT_DEFINITION ( 'UNKNOWN', '', #20, #15 ) ;
#161 = PRODUCT_RELATED_PRODUCT_CATEGORY ( 'detail', '', ( #128 ) ) ;
#162 = EDGE_CURVE ( 'NONE', #76, #2, #81, .T. ) ;
#163 = ORIENTED_EDGE ( 'NONE', *, *, #189, .T. ) ;
#164 = CC_DESIGN_SECURITY_CLASSIFICATION ( #48, ( #20 ) ) ;
#165 = PERSON_AND_ORGANIZATION ( #182, #98 ) ;
#166 = CIRCLE ( 'NONE', #141, 6000.000000000000000 ) ;
#167 = APPLICATION_CONTEXT ( 'configuration controlled 3d designs of mechanical parts and assemblies' ) ;
#168 = PERSON_AND_ORGANIZATION_ROLE ( 'design_owner' ) ;
#169 = DIRECTION ( 'NONE',  ( 0.000000000000000000, 0.000000000000000000, 1.000000000000000000 ) ) ;
#170 = DIRECTION ( 'NONE',  ( -0.000000000000000000, -0.000000000000000000, -1.000000000000000000 ) ) ;
#171 = LINE ( 'NONE', #125, #97 ) ;
#172 = PERSON_AND_ORGANIZATION ( #182, #98 ) ;
#173 = DIRECTION ( 'NONE',  ( 0.000000000000000000, 0.000000000000000000, 1.000000000000000000 ) ) ;
#174 = DIRECTION ( 'NONE',  ( -0.000000000000000000, -0.000000000000000000, -1.000000000000000000 ) ) ;
#175 = CIRCLE ( 'NONE', #4, 12.69999999999999929 ) ;
#176 = CARTESIAN_POINT ( 'NONE',  ( -12.70000000004658069, 0.000000000000000000, 6.000000000000227374 ) ) ;
#177 = VERTEX_POINT ( 'NONE', #14 ) ;
#178 = EDGE_LOOP ( 'NONE', ( #113, #32, #49, #138 ) ) ;
#179 = CIRCLE ( 'NONE', #51, 6000.000000000000000 ) ;
#180 = APPROVAL_DATE_TIME ( #41, #110 ) ;
#181 = DATE_TIME_ROLE ( 'classification_date' ) ;
#182 = PERSON ( 'UNSPECIFIED', 'UNSPECIFIED', 'UNSPECIFIED', ('UNSPECIFIED'), ('UNSPECIFIED'), ('UNSPECIFIED') ) ;
#183 = LOCAL_TIME ( 13, 24, 17.00000000000000000, #93 ) ;
#184 = COORDINATED_UNIVERSAL_TIME_OFFSET ( 2, 0, .AHEAD. ) ;
#185 = DIRECTION ( 'NONE',  ( -0.000000000000000000, -0.000000000000000000, -1.000000000000000000 ) ) ;
#186 = CALENDAR_DATE ( 2021, 25, 2 ) ;
#187 = CARTESIAN_POINT ( 'NONE',  ( 7.372574772901430151E-13, 0.000000000000000000, 6005.986559151611800 ) ) ;
#188 = APPROVAL_ROLE ( '' ) ;
#189 = EDGE_CURVE ( 'NONE', #2, #76, #102, .T. ) ;
#190 = APPROVAL ( #124, 'UNSPECIFIED' ) ;
#191 = DIRECTION ( 'NONE',  ( 1.224646799147353207E-16, -1.000000000000000000, 0.000000000000000000 ) ) ;
#192 = CARTESIAN_POINT ( 'NONE',  ( 0.000000000000000000, 0.000000000000000000, 0.000000000000000000 ) ) ;
#193 = DIRECTION ( 'NONE',  ( -0.000000000000000000, -0.000000000000000000, -1.000000000000000000 ) ) ;
#194 = DIRECTION ( 'NONE',  ( 1.000000000000000000, 0.000000000000000000, -0.000000000000000000 ) ) ;
#195 = EDGE_LOOP ( 'NONE', ( #68, #38, #105 ) ) ;
#196 = AXIS2_PLACEMENT_3D ( 'NONE', #21, #185, #3 ) ;
#197 = APPROVAL_DATE_TIME ( #116, #137 ) ;
#198 = PERSON_AND_ORGANIZATION_ROLE ( 'creator' ) ;
#199 = DIRECTION ( 'NONE',  ( 0.000000000000000000, 0.000000000000000000, 1.000000000000000000 ) ) ;
#200 = ORIENTED_EDGE ( 'NONE', *, *, #50, .T. ) ;
#201 = CC_DESIGN_APPROVAL ( #137, ( #20 ) ) ;
ENDSEC;
END-ISO-10303-21;
