ISO-10303-21;
HEADER;
FILE_DESCRIPTION (( 'STEP AP203' ),
    '1' );
FILE_NAME ('010-0229E_N-BK7_PCV_window.STEP',
    '2021-02-25T11:23:07',
    ( '' ),
    ( '' ),
    'SwSTEP 2.0',
    'SolidWorks 2019',
    '' );
FILE_SCHEMA (( 'CONFIG_CONTROL_DESIGN' ));
ENDSEC;

DATA;
#1 = DATE_AND_TIME ( #172, #116 ) ;
#2 = LOCAL_TIME ( 13, 23, 7.000000000000000000, #152 ) ;
#3 =( LENGTH_UNIT ( ) NAMED_UNIT ( * ) SI_UNIT ( .MILLI., .METRE. ) );
#4 = ORIENTED_EDGE ( 'NONE', *, *, #189, .F. ) ;
#5 = FACE_OUTER_BOUND ( 'NONE', #82, .T. ) ;
#6 = CARTESIAN_POINT ( 'NONE',  ( 4.909267437014364077E-13, 0.000000000000000000, 4005.979838699190168 ) ) ;
#7 = AXIS2_PLACEMENT_3D ( 'NONE', #49, #71, #132 ) ;
#8 = PLANE ( 'NONE',  #7 ) ;
#9 = CIRCLE ( 'NONE', #140, 12.69999999997738271 ) ;
#10 = VERTEX_POINT ( 'NONE', #191 ) ;
#11 = CARTESIAN_POINT ( 'NONE',  ( 4.909267437014364077E-13, 0.000000000000000000, 4005.979838699190168 ) ) ;
#12 = PERSON_AND_ORGANIZATION ( #197, #167 ) ;
#13 = DATE_AND_TIME ( #199, #46 ) ;
#14 = PRODUCT_DEFINITION ( 'UNKNOWN', '', #81, #59 ) ;
#15 = COORDINATED_UNIVERSAL_TIME_OFFSET ( 2, 0, .AHEAD. ) ;
#16 = CC_DESIGN_PERSON_AND_ORGANIZATION_ASSIGNMENT ( #198, #108, ( #14 ) ) ;
#17 = APPROVAL_ROLE ( '' ) ;
#18 = FACE_OUTER_BOUND ( 'NONE', #163, .T. ) ;
#19 = CLOSED_SHELL ( 'NONE', ( #125, #98, #164, #95, #26 ) ) ;
#20 = DIRECTION ( 'NONE',  ( 1.000000000000000000, 0.000000000000000000, 0.000000000000000000 ) ) ;
#21 = CARTESIAN_POINT ( 'NONE',  ( 0.000000000000000000, 0.000000000000000000, 0.000000000000000000 ) ) ;
#22 = EDGE_LOOP ( 'NONE', ( #150, #84, #48, #38 ) ) ;
#23 = LINE ( 'NONE', #25, #105 ) ;
#24 = ORIENTED_EDGE ( 'NONE', *, *, #45, .T. ) ;
#25 = CARTESIAN_POINT ( 'NONE',  ( 12.69999999999999929, 1.555301434917138433E-15, 6.000000000000000000 ) ) ;
#26 = ADVANCED_FACE ( 'NONE', ( #120 ), #67, .F. ) ;
#27 = COORDINATED_UNIVERSAL_TIME_OFFSET ( 2, 0, .AHEAD. ) ;
#28 = CC_DESIGN_SECURITY_CLASSIFICATION ( #153, ( #81 ) ) ;
#29 = AXIS2_PLACEMENT_3D ( 'NONE', #86, #148, #151 ) ;
#30 = DATE_TIME_ROLE ( 'classification_date' ) ;
#31 = AXIS2_PLACEMENT_3D ( 'NONE', #52, #40, #165 ) ;
#32 = ORIENTED_EDGE ( 'NONE', *, *, #60, .F. ) ;
#33 = APPLICATION_CONTEXT ( 'configuration controlled 3d designs of mechanical parts and assemblies' ) ;
#34 = SPHERICAL_SURFACE ( 'NONE', #53, 4000.000000000000000 ) ;
#35 = ORIENTED_EDGE ( 'NONE', *, *, #184, .F. ) ;
#36 = CC_DESIGN_APPROVAL ( #169, ( #81 ) ) ;
#37 = DIRECTION ( 'NONE',  ( 1.000000000000000000, 0.000000000000000000, 0.000000000000000000 ) ) ;
#38 = ORIENTED_EDGE ( 'NONE', *, *, #70, .T. ) ;
#39 = DIRECTION ( 'NONE',  ( -1.000000000000000000, 0.000000000000000000, 0.000000000000000000 ) ) ;
#40 = DIRECTION ( 'NONE',  ( -0.000000000000000000, -0.000000000000000000, -1.000000000000000000 ) ) ;
#41 = DIRECTION ( 'NONE',  ( 1.000000000000000000, 0.000000000000000000, 0.000000000000000000 ) ) ;
#42 = PERSON_AND_ORGANIZATION ( #197, #167 ) ;
#43 =( GEOMETRIC_REPRESENTATION_CONTEXT ( 3 ) GLOBAL_UNCERTAINTY_ASSIGNED_CONTEXT ( ( #155 ) ) GLOBAL_UNIT_ASSIGNED_CONTEXT ( ( #3, #44, #57 ) ) REPRESENTATION_CONTEXT ( 'NONE', 'WORKASPACE' ) );
#44 =( NAMED_UNIT ( * ) PLANE_ANGLE_UNIT ( ) SI_UNIT ( $, .RADIAN. ) );
#45 = EDGE_CURVE ( 'NONE', #10, #160, #61, .T. ) ;
#46 = LOCAL_TIME ( 13, 23, 7.000000000000000000, #139 ) ;
#47 = PERSON_AND_ORGANIZATION_ROLE ( 'design_supplier' ) ;
#48 = ORIENTED_EDGE ( 'NONE', *, *, #118, .T. ) ;
#49 = CARTESIAN_POINT ( 'NONE',  ( 0.000000000000000000, 0.000000000000000000, 0.000000000000000000 ) ) ;
#50 = EDGE_LOOP ( 'NONE', ( #145, #24, #4 ) ) ;
#51 = CC_DESIGN_PERSON_AND_ORGANIZATION_ASSIGNMENT ( #87, #123, ( #91 ) ) ;
#52 = CARTESIAN_POINT ( 'NONE',  ( 0.000000000000000000, 0.000000000000000000, 6.000000000000000000 ) ) ;
#53 = AXIS2_PLACEMENT_3D ( 'NONE', #6, #117, #161 ) ;
#54 = VERTEX_POINT ( 'NONE', #179 ) ;
#55 = CYLINDRICAL_SURFACE ( 'NONE', #31, 12.69999999999999929 ) ;
#56 = DIRECTION ( 'NONE',  ( -0.000000000000000000, -0.000000000000000000, -1.000000000000000000 ) ) ;
#57 =( NAMED_UNIT ( * ) SI_UNIT ( $, .STERADIAN. ) SOLID_ANGLE_UNIT ( ) );
#58 = CALENDAR_DATE ( 2021, 25, 2 ) ;
#59 = DESIGN_CONTEXT ( 'detailed design', #99, 'design' ) ;
#60 = EDGE_CURVE ( 'NONE', #54, #10, #9, .T. ) ;
#61 = CIRCLE ( 'NONE', #158, 4000.000000000000000 ) ;
#62 = APPROVAL_DATE_TIME ( #13, #169 ) ;
#63 = ORIENTED_EDGE ( 'NONE', *, *, #45, .F. ) ;
#64 = APPROVAL_STATUS ( 'not_yet_approved' ) ;
#65 = AXIS2_PLACEMENT_3D ( 'NONE', #75, #194, #185 ) ;
#66 = VERTEX_POINT ( 'NONE', #175 ) ;
#67 = SPHERICAL_SURFACE ( 'NONE', #96, 4000.000000000000000 ) ;
#68 = CARTESIAN_POINT ( 'NONE',  ( 4.909267437014364077E-13, 0.000000000000000000, 4005.979838699190168 ) ) ;
#69 = VECTOR ( 'NONE', #114, 1000.000000000000000 ) ;
#70 = EDGE_CURVE ( 'NONE', #103, #66, #85, .T. ) ;
#71 = DIRECTION ( 'NONE',  ( 0.000000000000000000, 0.000000000000000000, 1.000000000000000000 ) ) ;
#72 = ORIENTED_EDGE ( 'NONE', *, *, #118, .F. ) ;
#73 = MANIFOLD_SOLID_BREP ( 'Cut-Revolve1', #19 ) ;
#74 = FACE_OUTER_BOUND ( 'NONE', #22, .T. ) ;
#75 = CARTESIAN_POINT ( 'NONE',  ( 0.000000000000000000, 0.000000000000000000, 0.000000000000000000 ) ) ;
#76 = DATE_AND_TIME ( #196, #2 ) ;
#77 = AXIS2_PLACEMENT_3D ( 'NONE', #101, #193, #20 ) ;
#78 = CIRCLE ( 'NONE', #200, 12.69999999997738271 ) ;
#79 = ORIENTED_EDGE ( 'NONE', *, *, #70, .F. ) ;
#80 = CARTESIAN_POINT ( 'NONE',  ( 4.909267437014364077E-13, 0.000000000000000000, 5.999999999999783284 ) ) ;
#81 = PRODUCT_DEFINITION_FORMATION_WITH_SPECIFIED_SOURCE ( 'ANY', '', #91, .NOT_KNOWN. ) ;
#82 = EDGE_LOOP ( 'NONE', ( #79, #35 ) ) ;
#83 = DIRECTION ( 'NONE',  ( 1.000000000000000000, 0.000000000000000000, 0.000000000000000000 ) ) ;
#84 = ORIENTED_EDGE ( 'NONE', *, *, #60, .T. ) ;
#85 = CIRCLE ( 'NONE', #77, 12.69999999999999929 ) ;
#86 = CARTESIAN_POINT ( 'NONE',  ( 4.909267437014364077E-13, 0.000000000000000000, 4005.979838699190168 ) ) ;
#87 = PERSON_AND_ORGANIZATION ( #197, #167 ) ;
#88 = LOCAL_TIME ( 13, 23, 7.000000000000000000, #156 ) ;
#89 = APPLICATION_PROTOCOL_DEFINITION ( 'international standard', 'config_control_design', 1994, #33 ) ;
#90 = APPROVAL ( #166, 'UNSPECIFIED' ) ;
#91 = PRODUCT ( '010-0229E_N-BK7_PCV_window', '010-0229E_N-BK7_PCV_window', '', ( #181 ) ) ;
#92 = CIRCLE ( 'NONE', #195, 12.69999999999999929 ) ;
#93 = PERSON_AND_ORGANIZATION_ROLE ( 'classification_officer' ) ;
#94 = DATE_AND_TIME ( #112, #88 ) ;
#95 = ADVANCED_FACE ( 'NONE', ( #5 ), #8, .F. ) ;
#96 = AXIS2_PLACEMENT_3D ( 'NONE', #68, #115, #129 ) ;
#97 = PERSON_AND_ORGANIZATION_ROLE ( 'creator' ) ;
#98 = ADVANCED_FACE ( 'NONE', ( #18 ), #104, .T. ) ;
#99 = APPLICATION_CONTEXT ( 'configuration controlled 3d designs of mechanical parts and assemblies' ) ;
#100 = CARTESIAN_POINT ( 'NONE',  ( -12.69999999999999929, 0.000000000000000000, 6.000000000000000000 ) ) ;
#101 = CARTESIAN_POINT ( 'NONE',  ( 0.000000000000000000, 0.000000000000000000, 0.000000000000000000 ) ) ;
#102 = ORIENTED_EDGE ( 'NONE', *, *, #189, .T. ) ;
#103 = VERTEX_POINT ( 'NONE', #131 ) ;
#104 = CYLINDRICAL_SURFACE ( 'NONE', #126, 12.69999999999999929 ) ;
#105 = VECTOR ( 'NONE', #119, 1000.000000000000000 ) ;
#106 = EDGE_CURVE ( 'NONE', #54, #66, #23, .T. ) ;
#107 = APPLICATION_PROTOCOL_DEFINITION ( 'international standard', 'config_control_design', 1994, #99 ) ;
#108 = PERSON_AND_ORGANIZATION_ROLE ( 'creator' ) ;
#109 = CC_DESIGN_APPROVAL ( #122, ( #153 ) ) ;
#110 = APPROVAL_PERSON_ORGANIZATION ( #42, #169, #154 ) ;
#111 = PRODUCT_RELATED_PRODUCT_CATEGORY ( 'detail', '', ( #91 ) ) ;
#112 = CALENDAR_DATE ( 2021, 25, 2 ) ;
#113 = ORIENTED_EDGE ( 'NONE', *, *, #141, .T. ) ;
#114 = DIRECTION ( 'NONE',  ( -0.000000000000000000, -0.000000000000000000, -1.000000000000000000 ) ) ;
#115 = DIRECTION ( 'NONE',  ( 0.000000000000000000, -1.000000000000000000, -0.000000000000000000 ) ) ;
#116 = LOCAL_TIME ( 13, 23, 7.000000000000000000, #15 ) ;
#117 = DIRECTION ( 'NONE',  ( 0.000000000000000000, -1.000000000000000000, -0.000000000000000000 ) ) ;
#118 = EDGE_CURVE ( 'NONE', #10, #103, #180, .T. ) ;
#119 = DIRECTION ( 'NONE',  ( -0.000000000000000000, -0.000000000000000000, -1.000000000000000000 ) ) ;
#120 = FACE_OUTER_BOUND ( 'NONE', #177, .T. ) ;
#121 = CC_DESIGN_APPROVAL ( #90, ( #14 ) ) ;
#122 = APPROVAL ( #64, 'UNSPECIFIED' ) ;
#123 = PERSON_AND_ORGANIZATION_ROLE ( 'design_owner' ) ;
#124 = DATE_AND_TIME ( #58, #171 ) ;
#125 = ADVANCED_FACE ( 'NONE', ( #190 ), #34, .F. ) ;
#126 = AXIS2_PLACEMENT_3D ( 'NONE', #192, #56, #39 ) ;
#127 = SHAPE_DEFINITION_REPRESENTATION ( #187, #143 ) ;
#128 = APPROVAL_DATE_TIME ( #1, #122 ) ;
#129 = DIRECTION ( 'NONE',  ( 1.000000000000000000, 0.000000000000000000, 0.000000000000000000 ) ) ;
#130 = DIRECTION ( 'NONE',  ( -0.000000000000000000, -0.000000000000000000, -1.000000000000000000 ) ) ;
#131 = CARTESIAN_POINT ( 'NONE',  ( -12.69999999999999929, 0.000000000000000000, 0.000000000000000000 ) ) ;
#132 = DIRECTION ( 'NONE',  ( 1.000000000000000000, 0.000000000000000000, -0.000000000000000000 ) ) ;
#133 = ORIENTED_EDGE ( 'NONE', *, *, #106, .T. ) ;
#134 = DIRECTION ( 'NONE',  ( 1.000000000000000000, 1.224646799147353207E-16, 0.000000000000000000 ) ) ;
#135 = CC_DESIGN_PERSON_AND_ORGANIZATION_ASSIGNMENT ( #173, #93, ( #153 ) ) ;
#136 = APPROVAL_PERSON_ORGANIZATION ( #12, #90, #137 ) ;
#137 = APPROVAL_ROLE ( '' ) ;
#138 = APPROVAL_DATE_TIME ( #76, #90 ) ;
#139 = COORDINATED_UNIVERSAL_TIME_OFFSET ( 2, 0, .AHEAD. ) ;
#140 = AXIS2_PLACEMENT_3D ( 'NONE', #80, #130, #37 ) ;
#141 = EDGE_CURVE ( 'NONE', #10, #54, #78, .T. ) ;
#142 = CC_DESIGN_PERSON_AND_ORGANIZATION_ASSIGNMENT ( #186, #97, ( #81 ) ) ;
#143 = ADVANCED_BREP_SHAPE_REPRESENTATION ( '010-0229E_N-BK7_PCV_window', ( #73, #65 ), #43 ) ;
#144 = DIRECTION ( 'NONE',  ( 0.000000000000000000, 0.000000000000000000, 1.000000000000000000 ) ) ;
#145 = ORIENTED_EDGE ( 'NONE', *, *, #141, .F. ) ;
#146 = CARTESIAN_POINT ( 'NONE',  ( 7.358561035309071079E-13, 0.000000000000000000, 5.979838699190054285 ) ) ;
#147 = CC_DESIGN_DATE_AND_TIME_ASSIGNMENT ( #94, #30, ( #153 ) ) ;
#148 = DIRECTION ( 'NONE',  ( 0.000000000000000000, 1.000000000000000000, -0.000000000000000000 ) ) ;
#149 = ORIENTED_EDGE ( 'NONE', *, *, #184, .T. ) ;
#150 = ORIENTED_EDGE ( 'NONE', *, *, #106, .F. ) ;
#151 = DIRECTION ( 'NONE',  ( 0.000000000000000000, 0.000000000000000000, 1.000000000000000000 ) ) ;
#152 = COORDINATED_UNIVERSAL_TIME_OFFSET ( 2, 0, .AHEAD. ) ;
#153 = SECURITY_CLASSIFICATION ( '', '', #170 ) ;
#154 = APPROVAL_ROLE ( '' ) ;
#155 = UNCERTAINTY_MEASURE_WITH_UNIT (LENGTH_MEASURE( 1.000000000000000082E-05 ), #3, 'distance_accuracy_value', 'NONE');
#156 = COORDINATED_UNIVERSAL_TIME_OFFSET ( 2, 0, .AHEAD. ) ;
#157 = CC_DESIGN_DATE_AND_TIME_ASSIGNMENT ( #124, #183, ( #14 ) ) ;
#158 = AXIS2_PLACEMENT_3D ( 'NONE', #11, #176, #134 ) ;
#159 = PERSON_AND_ORGANIZATION ( #197, #167 ) ;
#160 = VERTEX_POINT ( 'NONE', #146 ) ;
#161 = DIRECTION ( 'NONE',  ( 1.000000000000000000, 0.000000000000000000, 0.000000000000000000 ) ) ;
#162 = DIRECTION ( 'NONE',  ( -0.000000000000000000, -0.000000000000000000, -1.000000000000000000 ) ) ;
#163 = EDGE_LOOP ( 'NONE', ( #113, #133, #149, #72 ) ) ;
#164 = ADVANCED_FACE ( 'NONE', ( #74 ), #55, .T. ) ;
#165 = DIRECTION ( 'NONE',  ( -1.000000000000000000, 0.000000000000000000, 0.000000000000000000 ) ) ;
#166 = APPROVAL_STATUS ( 'not_yet_approved' ) ;
#167 = ORGANIZATION ( 'UNSPECIFIED', 'UNSPECIFIED', '' ) ;
#168 = APPROVAL_STATUS ( 'not_yet_approved' ) ;
#169 = APPROVAL ( #168, 'UNSPECIFIED' ) ;
#170 = SECURITY_CLASSIFICATION_LEVEL ( 'unclassified' ) ;
#171 = LOCAL_TIME ( 13, 23, 7.000000000000000000, #27 ) ;
#172 = CALENDAR_DATE ( 2021, 25, 2 ) ;
#173 = PERSON_AND_ORGANIZATION ( #197, #167 ) ;
#174 = CIRCLE ( 'NONE', #29, 4000.000000000000000 ) ;
#175 = CARTESIAN_POINT ( 'NONE',  ( 12.69999999999999929, 1.555301434917138433E-15, 0.000000000000000000 ) ) ;
#176 = DIRECTION ( 'NONE',  ( 1.224646799147353207E-16, -1.000000000000000000, 0.000000000000000000 ) ) ;
#177 = EDGE_LOOP ( 'NONE', ( #63, #32, #102 ) ) ;
#178 = CARTESIAN_POINT ( 'NONE',  ( 4.909267437014364077E-13, 0.000000000000000000, 5.999999999999783284 ) ) ;
#179 = CARTESIAN_POINT ( 'NONE',  ( 12.69999999997787299, 1.555301434915783761E-15, 5.999999999999783284 ) ) ;
#180 = LINE ( 'NONE', #100, #69 ) ;
#181 = MECHANICAL_CONTEXT ( 'NONE', #33, 'mechanical' ) ;
#182 = CC_DESIGN_PERSON_AND_ORGANIZATION_ASSIGNMENT ( #188, #47, ( #81 ) ) ;
#183 = DATE_TIME_ROLE ( 'creation_date' ) ;
#184 = EDGE_CURVE ( 'NONE', #66, #103, #92, .T. ) ;
#185 = DIRECTION ( 'NONE',  ( 1.000000000000000000, 0.000000000000000000, 0.000000000000000000 ) ) ;
#186 = PERSON_AND_ORGANIZATION ( #197, #167 ) ;
#187 = PRODUCT_DEFINITION_SHAPE ( 'NONE', 'NONE',  #14 ) ;
#188 = PERSON_AND_ORGANIZATION ( #197, #167 ) ;
#189 = EDGE_CURVE ( 'NONE', #54, #160, #174, .T. ) ;
#190 = FACE_OUTER_BOUND ( 'NONE', #50, .T. ) ;
#191 = CARTESIAN_POINT ( 'NONE',  ( -12.69999999997689066, 0.000000000000000000, 5.999999999999783284 ) ) ;
#192 = CARTESIAN_POINT ( 'NONE',  ( 0.000000000000000000, 0.000000000000000000, 6.000000000000000000 ) ) ;
#193 = DIRECTION ( 'NONE',  ( 0.000000000000000000, 0.000000000000000000, 1.000000000000000000 ) ) ;
#194 = DIRECTION ( 'NONE',  ( 0.000000000000000000, 0.000000000000000000, 1.000000000000000000 ) ) ;
#195 = AXIS2_PLACEMENT_3D ( 'NONE', #21, #144, #41 ) ;
#196 = CALENDAR_DATE ( 2021, 25, 2 ) ;
#197 = PERSON ( 'UNSPECIFIED', 'UNSPECIFIED', 'UNSPECIFIED', ('UNSPECIFIED'), ('UNSPECIFIED'), ('UNSPECIFIED') ) ;
#198 = PERSON_AND_ORGANIZATION ( #197, #167 ) ;
#199 = CALENDAR_DATE ( 2021, 25, 2 ) ;
#200 = AXIS2_PLACEMENT_3D ( 'NONE', #178, #162, #83 ) ;
#201 = APPROVAL_PERSON_ORGANIZATION ( #159, #122, #17 ) ;
ENDSEC;
END-ISO-10303-21;
