ISO-10303-21;
HEADER;
FILE_DESCRIPTION (( 'STEP AP203' ),
    '1' );
FILE_NAME ('010-0227E_N-BK7_PCV_window.STEP',
    '2021-02-25T11:22:29',
    ( '' ),
    ( '' ),
    'SwSTEP 2.0',
    'SolidWorks 2019',
    '' );
FILE_SCHEMA (( 'CONFIG_CONTROL_DESIGN' ));
ENDSEC;

DATA;
#1 = AXIS2_PLACEMENT_3D ( 'NONE', #91, #153, #135 ) ;
#2 = PERSON_AND_ORGANIZATION ( #152, #200 ) ;
#3 = SHAPE_DEFINITION_REPRESENTATION ( #143, #171 ) ;
#4 = PERSON_AND_ORGANIZATION ( #152, #200 ) ;
#5 = APPROVAL_STATUS ( 'not_yet_approved' ) ;
#6 = DIRECTION ( 'NONE',  ( 1.000000000000000000, 1.224646799147353207E-16, 0.000000000000000000 ) ) ;
#7 = LINE ( 'NONE', #58, #93 ) ;
#8 = AXIS2_PLACEMENT_3D ( 'NONE', #105, #77, #133 ) ;
#9 = DIRECTION ( 'NONE',  ( 1.000000000000000000, 0.000000000000000000, 0.000000000000000000 ) ) ;
#10 = ORIENTED_EDGE ( 'NONE', *, *, #125, .F. ) ;
#11 = AXIS2_PLACEMENT_3D ( 'NONE', #34, #24, #6 ) ;
#12 = DESIGN_CONTEXT ( 'detailed design', #172, 'design' ) ;
#13 = APPROVAL_ROLE ( '' ) ;
#14 = CC_DESIGN_PERSON_AND_ORGANIZATION_ASSIGNMENT ( #126, #114, ( #192 ) ) ;
#15 = LOCAL_TIME ( 13, 22, 29.00000000000000000, #80 ) ;
#16 =( NAMED_UNIT ( * ) SI_UNIT ( $, .STERADIAN. ) SOLID_ANGLE_UNIT ( ) );
#17 = CARTESIAN_POINT ( 'NONE',  ( 0.000000000000000000, 0.000000000000000000, 0.000000000000000000 ) ) ;
#18 = APPROVAL ( #5, 'UNSPECIFIED' ) ;
#19 = CALENDAR_DATE ( 2021, 25, 2 ) ;
#20 = ADVANCED_FACE ( 'NONE', ( #56 ), #88, .T. ) ;
#21 = PERSON_AND_ORGANIZATION_ROLE ( 'design_supplier' ) ;
#22 = PRODUCT ( '010-0227E_N-BK7_PCV_window', '010-0227E_N-BK7_PCV_window', '', ( #82 ) ) ;
#23 = CIRCLE ( 'NONE', #161, 12.70000000004731788 ) ;
#24 = DIRECTION ( 'NONE',  ( 1.224646799147353207E-16, -1.000000000000000000, 0.000000000000000000 ) ) ;
#25 = ORIENTED_EDGE ( 'NONE', *, *, #141, .F. ) ;
#26 = ORIENTED_EDGE ( 'NONE', *, *, #39, .F. ) ;
#27 = FACE_OUTER_BOUND ( 'NONE', #109, .T. ) ;
#28 = CC_DESIGN_PERSON_AND_ORGANIZATION_ASSIGNMENT ( #140, #64, ( #22 ) ) ;
#29 = ORIENTED_EDGE ( 'NONE', *, *, #39, .T. ) ;
#30 = VECTOR ( 'NONE', #95, 1000.000000000000000 ) ;
#31 = DIRECTION ( 'NONE',  ( 1.000000000000000000, 0.000000000000000000, 0.000000000000000000 ) ) ;
#32 = DATE_AND_TIME ( #189, #130 ) ;
#33 = APPROVAL_STATUS ( 'not_yet_approved' ) ;
#34 = CARTESIAN_POINT ( 'NONE',  ( 3.694961003830599111E-13, 0.000000000000000000, 3005.973118212894406 ) ) ;
#35 = AXIS2_PLACEMENT_3D ( 'NONE', #81, #175, #31 ) ;
#36 = ORIENTED_EDGE ( 'NONE', *, *, #108, .F. ) ;
#37 = CARTESIAN_POINT ( 'NONE',  ( 3.694961003830599111E-13, 0.000000000000000000, 5.999999999999783284 ) ) ;
#38 = VERTEX_POINT ( 'NONE', #197 ) ;
#39 = EDGE_CURVE ( 'NONE', #60, #38, #49, .T. ) ;
#40 = FACE_OUTER_BOUND ( 'NONE', #104, .T. ) ;
#41 = CC_DESIGN_SECURITY_CLASSIFICATION ( #116, ( #165 ) ) ;
#42 = CC_DESIGN_APPROVAL ( #18, ( #116 ) ) ;
#43 = DIRECTION ( 'NONE',  ( 0.000000000000000000, 0.000000000000000000, 1.000000000000000000 ) ) ;
#44 = CC_DESIGN_PERSON_AND_ORGANIZATION_ASSIGNMENT ( #51, #160, ( #116 ) ) ;
#45 = AXIS2_PLACEMENT_3D ( 'NONE', #106, #167, #120 ) ;
#46 = DIRECTION ( 'NONE',  ( 1.000000000000000000, 0.000000000000000000, 0.000000000000000000 ) ) ;
#47 = ADVANCED_FACE ( 'NONE', ( #40 ), #181, .F. ) ;
#48 = DATE_TIME_ROLE ( 'classification_date' ) ;
#49 = CIRCLE ( 'NONE', #8, 12.70000000004731788 ) ;
#50 = DATE_TIME_ROLE ( 'creation_date' ) ;
#51 = PERSON_AND_ORGANIZATION ( #152, #200 ) ;
#52 = EDGE_CURVE ( 'NONE', #38, #53, #7, .T. ) ;
#53 = VERTEX_POINT ( 'NONE', #76 ) ;
#54 = APPROVAL_PERSON_ORGANIZATION ( #70, #122, #67 ) ;
#55 = EDGE_LOOP ( 'NONE', ( #74, #26, #193 ) ) ;
#56 = FACE_OUTER_BOUND ( 'NONE', #148, .T. ) ;
#57 = ADVANCED_FACE ( 'NONE', ( #27 ), #162, .F. ) ;
#58 = CARTESIAN_POINT ( 'NONE',  ( -12.69999999999999929, 0.000000000000000000, 6.000000000000000000 ) ) ;
#59 = DIRECTION ( 'NONE',  ( 0.000000000000000000, 1.000000000000000000, -0.000000000000000000 ) ) ;
#60 = VERTEX_POINT ( 'NONE', #134 ) ;
#61 = CARTESIAN_POINT ( 'NONE',  ( 12.69999999999999929, 1.555301434917138433E-15, 0.000000000000000000 ) ) ;
#62 = CARTESIAN_POINT ( 'NONE',  ( 12.69999999999999929, 1.555301434917138433E-15, 6.000000000000000000 ) ) ;
#63 = EDGE_CURVE ( 'NONE', #38, #60, #23, .T. ) ;
#64 = PERSON_AND_ORGANIZATION_ROLE ( 'design_owner' ) ;
#65 = AXIS2_PLACEMENT_3D ( 'NONE', #195, #103, #131 ) ;
#66 = APPROVAL_DATE_TIME ( #158, #157 ) ;
#67 = APPROVAL_ROLE ( '' ) ;
#68 = CIRCLE ( 'NONE', #1, 12.69999999999999929 ) ;
#69 = PERSON_AND_ORGANIZATION ( #152, #200 ) ;
#70 = PERSON_AND_ORGANIZATION ( #152, #200 ) ;
#71 = CC_DESIGN_DATE_AND_TIME_ASSIGNMENT ( #190, #48, ( #116 ) ) ;
#72 = LINE ( 'NONE', #62, #30 ) ;
#73 = LOCAL_TIME ( 13, 22, 29.00000000000000000, #129 ) ;
#74 = ORIENTED_EDGE ( 'NONE', *, *, #113, .F. ) ;
#75 = ORIENTED_EDGE ( 'NONE', *, *, #125, .T. ) ;
#76 = CARTESIAN_POINT ( 'NONE',  ( -12.69999999999999929, 0.000000000000000000, 0.000000000000000000 ) ) ;
#77 = DIRECTION ( 'NONE',  ( -0.000000000000000000, -0.000000000000000000, -1.000000000000000000 ) ) ;
#78 = CIRCLE ( 'NONE', #11, 3000.000000000000000 ) ;
#79 = ADVANCED_FACE ( 'NONE', ( #149 ), #164, .T. ) ;
#80 = COORDINATED_UNIVERSAL_TIME_OFFSET ( 2, 0, .AHEAD. ) ;
#81 = CARTESIAN_POINT ( 'NONE',  ( 0.000000000000000000, 0.000000000000000000, 0.000000000000000000 ) ) ;
#82 = MECHANICAL_CONTEXT ( 'NONE', #191, 'mechanical' ) ;
#83 = SPHERICAL_SURFACE ( 'NONE', #142, 3000.000000000000000 ) ;
#84 = PERSON_AND_ORGANIZATION ( #152, #200 ) ;
#85 = CC_DESIGN_APPROVAL ( #157, ( #192 ) ) ;
#86 = CC_DESIGN_PERSON_AND_ORGANIZATION_ASSIGNMENT ( #84, #101, ( #165 ) ) ;
#87 = APPROVAL_DATE_TIME ( #177, #122 ) ;
#88 = CYLINDRICAL_SURFACE ( 'NONE', #45, 12.69999999999999929 ) ;
#89 = AXIS2_PLACEMENT_3D ( 'NONE', #180, #90, #151 ) ;
#90 = DIRECTION ( 'NONE',  ( 0.000000000000000000, 0.000000000000000000, 1.000000000000000000 ) ) ;
#91 = CARTESIAN_POINT ( 'NONE',  ( 0.000000000000000000, 0.000000000000000000, 0.000000000000000000 ) ) ;
#92 = CC_DESIGN_PERSON_AND_ORGANIZATION_ASSIGNMENT ( #4, #21, ( #165 ) ) ;
#93 = VECTOR ( 'NONE', #119, 1000.000000000000000 ) ;
#94 = ORIENTED_EDGE ( 'NONE', *, *, #63, .F. ) ;
#95 = DIRECTION ( 'NONE',  ( -0.000000000000000000, -0.000000000000000000, -1.000000000000000000 ) ) ;
#96 = AXIS2_PLACEMENT_3D ( 'NONE', #121, #183, #107 ) ;
#97 = APPLICATION_PROTOCOL_DEFINITION ( 'international standard', 'config_control_design', 1994, #191 ) ;
#98 = CALENDAR_DATE ( 2021, 25, 2 ) ;
#99 = DIRECTION ( 'NONE',  ( 0.000000000000000000, -1.000000000000000000, -0.000000000000000000 ) ) ;
#100 = COORDINATED_UNIVERSAL_TIME_OFFSET ( 2, 0, .AHEAD. ) ;
#101 = PERSON_AND_ORGANIZATION_ROLE ( 'creator' ) ;
#102 = EDGE_CURVE ( 'NONE', #53, #196, #68, .T. ) ;
#103 = DIRECTION ( 'NONE',  ( 0.000000000000000000, -1.000000000000000000, -0.000000000000000000 ) ) ;
#104 = EDGE_LOOP ( 'NONE', ( #94, #154, #36 ) ) ;
#105 = CARTESIAN_POINT ( 'NONE',  ( 3.694961003830599111E-13, 0.000000000000000000, 5.999999999999783284 ) ) ;
#106 = CARTESIAN_POINT ( 'NONE',  ( 0.000000000000000000, 0.000000000000000000, 6.000000000000000000 ) ) ;
#107 = DIRECTION ( 'NONE',  ( -1.000000000000000000, 0.000000000000000000, 0.000000000000000000 ) ) ;
#108 = EDGE_CURVE ( 'NONE', #60, #199, #145, .T. ) ;
#109 = EDGE_LOOP ( 'NONE', ( #168, #25 ) ) ;
#110 = LOCAL_TIME ( 13, 22, 29.00000000000000000, #178 ) ;
#111 = ORIENTED_EDGE ( 'NONE', *, *, #63, .T. ) ;
#112 = CLOSED_SHELL ( 'NONE', ( #47, #79, #20, #57, #128 ) ) ;
#113 = EDGE_CURVE ( 'NONE', #38, #199, #78, .T. ) ;
#114 = PERSON_AND_ORGANIZATION_ROLE ( 'creator' ) ;
#115 = APPROVAL_DATE_TIME ( #117, #18 ) ;
#116 = SECURITY_CLASSIFICATION ( '', '', #146 ) ;
#117 = DATE_AND_TIME ( #144, #110 ) ;
#118 = APPROVAL_PERSON_ORGANIZATION ( #2, #157, #13 ) ;
#119 = DIRECTION ( 'NONE',  ( -0.000000000000000000, -0.000000000000000000, -1.000000000000000000 ) ) ;
#120 = DIRECTION ( 'NONE',  ( -1.000000000000000000, 0.000000000000000000, 0.000000000000000000 ) ) ;
#121 = CARTESIAN_POINT ( 'NONE',  ( 0.000000000000000000, 0.000000000000000000, 6.000000000000000000 ) ) ;
#122 = APPROVAL ( #33, 'UNSPECIFIED' ) ;
#123 = APPLICATION_PROTOCOL_DEFINITION ( 'international standard', 'config_control_design', 1994, #172 ) ;
#124 = AXIS2_PLACEMENT_3D ( 'NONE', #17, #43, #46 ) ;
#125 = EDGE_CURVE ( 'NONE', #60, #196, #72, .T. ) ;
#126 = PERSON_AND_ORGANIZATION ( #152, #200 ) ;
#127 = APPROVAL_ROLE ( '' ) ;
#128 = ADVANCED_FACE ( 'NONE', ( #139 ), #83, .F. ) ;
#129 = COORDINATED_UNIVERSAL_TIME_OFFSET ( 2, 0, .AHEAD. ) ;
#130 = LOCAL_TIME ( 13, 22, 29.00000000000000000, #186 ) ;
#131 = DIRECTION ( 'NONE',  ( 1.000000000000000000, 0.000000000000000000, 0.000000000000000000 ) ) ;
#132 = LOCAL_TIME ( 13, 22, 29.00000000000000000, #100 ) ;
#133 = DIRECTION ( 'NONE',  ( 1.000000000000000000, 0.000000000000000000, 0.000000000000000000 ) ) ;
#134 = CARTESIAN_POINT ( 'NONE',  ( 12.70000000004768914, 1.555301434922978764E-15, 5.999999999999783284 ) ) ;
#135 = DIRECTION ( 'NONE',  ( 1.000000000000000000, 0.000000000000000000, 0.000000000000000000 ) ) ;
#136 = ORIENTED_EDGE ( 'NONE', *, *, #52, .T. ) ;
#137 = UNCERTAINTY_MEASURE_WITH_UNIT (LENGTH_MEASURE( 1.000000000000000082E-05 ), #176, 'distance_accuracy_value', 'NONE');
#138 = EDGE_LOOP ( 'NONE', ( #111, #75, #163, #170 ) ) ;
#139 = FACE_OUTER_BOUND ( 'NONE', #55, .T. ) ;
#140 = PERSON_AND_ORGANIZATION ( #152, #200 ) ;
#141 = EDGE_CURVE ( 'NONE', #196, #53, #194, .T. ) ;
#142 = AXIS2_PLACEMENT_3D ( 'NONE', #173, #99, #187 ) ;
#143 = PRODUCT_DEFINITION_SHAPE ( 'NONE', 'NONE',  #192 ) ;
#144 = CALENDAR_DATE ( 2021, 25, 2 ) ;
#145 = CIRCLE ( 'NONE', #182, 3000.000000000000000 ) ;
#146 = SECURITY_CLASSIFICATION_LEVEL ( 'unclassified' ) ;
#147 = DIRECTION ( 'NONE',  ( -0.000000000000000000, -0.000000000000000000, -1.000000000000000000 ) ) ;
#148 = EDGE_LOOP ( 'NONE', ( #10, #29, #136, #166 ) ) ;
#149 = FACE_OUTER_BOUND ( 'NONE', #138, .T. ) ;
#150 = CC_DESIGN_DATE_AND_TIME_ASSIGNMENT ( #32, #50, ( #192 ) ) ;
#151 = DIRECTION ( 'NONE',  ( 1.000000000000000000, 0.000000000000000000, -0.000000000000000000 ) ) ;
#152 = PERSON ( 'UNSPECIFIED', 'UNSPECIFIED', 'UNSPECIFIED', ('UNSPECIFIED'), ('UNSPECIFIED'), ('UNSPECIFIED') ) ;
#153 = DIRECTION ( 'NONE',  ( 0.000000000000000000, 0.000000000000000000, 1.000000000000000000 ) ) ;
#154 = ORIENTED_EDGE ( 'NONE', *, *, #113, .T. ) ;
#155 = MANIFOLD_SOLID_BREP ( 'Cut-Revolve1', #112 ) ;
#156 = CARTESIAN_POINT ( 'NONE',  ( 5.531931202551628353E-13, 0.000000000000000000, 5.973118212894590329 ) ) ;
#157 = APPROVAL ( #188, 'UNSPECIFIED' ) ;
#158 = DATE_AND_TIME ( #98, #15 ) ;
#159 = CALENDAR_DATE ( 2021, 25, 2 ) ;
#160 = PERSON_AND_ORGANIZATION_ROLE ( 'classification_officer' ) ;
#161 = AXIS2_PLACEMENT_3D ( 'NONE', #37, #147, #9 ) ;
#162 = PLANE ( 'NONE',  #89 ) ;
#163 = ORIENTED_EDGE ( 'NONE', *, *, #141, .T. ) ;
#164 = CYLINDRICAL_SURFACE ( 'NONE', #96, 12.69999999999999929 ) ;
#165 = PRODUCT_DEFINITION_FORMATION_WITH_SPECIFIED_SOURCE ( 'ANY', '', #22, .NOT_KNOWN. ) ;
#166 = ORIENTED_EDGE ( 'NONE', *, *, #102, .T. ) ;
#167 = DIRECTION ( 'NONE',  ( -0.000000000000000000, -0.000000000000000000, -1.000000000000000000 ) ) ;
#168 = ORIENTED_EDGE ( 'NONE', *, *, #102, .F. ) ;
#169 = CC_DESIGN_APPROVAL ( #122, ( #165 ) ) ;
#170 = ORIENTED_EDGE ( 'NONE', *, *, #52, .F. ) ;
#171 = ADVANCED_BREP_SHAPE_REPRESENTATION ( '010-0227E_N-BK7_PCV_window', ( #155, #35 ), #174 ) ;
#172 = APPLICATION_CONTEXT ( 'configuration controlled 3d designs of mechanical parts and assemblies' ) ;
#173 = CARTESIAN_POINT ( 'NONE',  ( 3.694961003830599111E-13, 0.000000000000000000, 3005.973118212894406 ) ) ;
#174 =( GEOMETRIC_REPRESENTATION_CONTEXT ( 3 ) GLOBAL_UNCERTAINTY_ASSIGNED_CONTEXT ( ( #137 ) ) GLOBAL_UNIT_ASSIGNED_CONTEXT ( ( #176, #201, #16 ) ) REPRESENTATION_CONTEXT ( 'NONE', 'WORKASPACE' ) );
#175 = DIRECTION ( 'NONE',  ( 0.000000000000000000, 0.000000000000000000, 1.000000000000000000 ) ) ;
#176 =( LENGTH_UNIT ( ) NAMED_UNIT ( * ) SI_UNIT ( .MILLI., .METRE. ) );
#177 = DATE_AND_TIME ( #159, #132 ) ;
#178 = COORDINATED_UNIVERSAL_TIME_OFFSET ( 2, 0, .AHEAD. ) ;
#179 = DIRECTION ( 'NONE',  ( 0.000000000000000000, 0.000000000000000000, 1.000000000000000000 ) ) ;
#180 = CARTESIAN_POINT ( 'NONE',  ( 0.000000000000000000, 0.000000000000000000, 0.000000000000000000 ) ) ;
#181 = SPHERICAL_SURFACE ( 'NONE', #65, 3000.000000000000000 ) ;
#182 = AXIS2_PLACEMENT_3D ( 'NONE', #198, #59, #179 ) ;
#183 = DIRECTION ( 'NONE',  ( -0.000000000000000000, -0.000000000000000000, -1.000000000000000000 ) ) ;
#184 = PRODUCT_RELATED_PRODUCT_CATEGORY ( 'detail', '', ( #22 ) ) ;
#185 = APPROVAL_PERSON_ORGANIZATION ( #69, #18, #127 ) ;
#186 = COORDINATED_UNIVERSAL_TIME_OFFSET ( 2, 0, .AHEAD. ) ;
#187 = DIRECTION ( 'NONE',  ( 1.000000000000000000, 0.000000000000000000, 0.000000000000000000 ) ) ;
#188 = APPROVAL_STATUS ( 'not_yet_approved' ) ;
#189 = CALENDAR_DATE ( 2021, 25, 2 ) ;
#190 = DATE_AND_TIME ( #19, #73 ) ;
#191 = APPLICATION_CONTEXT ( 'configuration controlled 3d designs of mechanical parts and assemblies' ) ;
#192 = PRODUCT_DEFINITION ( 'UNKNOWN', '', #165, #12 ) ;
#193 = ORIENTED_EDGE ( 'NONE', *, *, #108, .T. ) ;
#194 = CIRCLE ( 'NONE', #124, 12.69999999999999929 ) ;
#195 = CARTESIAN_POINT ( 'NONE',  ( 3.694961003830599111E-13, 0.000000000000000000, 3005.973118212894406 ) ) ;
#196 = VERTEX_POINT ( 'NONE', #61 ) ;
#197 = CARTESIAN_POINT ( 'NONE',  ( -12.70000000004695018, 0.000000000000000000, 5.999999999999783284 ) ) ;
#198 = CARTESIAN_POINT ( 'NONE',  ( 3.694961003830599111E-13, 0.000000000000000000, 3005.973118212894406 ) ) ;
#199 = VERTEX_POINT ( 'NONE', #156 ) ;
#200 = ORGANIZATION ( 'UNSPECIFIED', 'UNSPECIFIED', '' ) ;
#201 =( NAMED_UNIT ( * ) PLANE_ANGLE_UNIT ( ) SI_UNIT ( $, .RADIAN. ) );
ENDSEC;
END-ISO-10303-21;
